Slipknot - Opium Of The People Chords & Tabs

 

Opium Of The People Chords & Tabs

Slipknot Chords & Tabs

Version: 3 Type: Bass Tab 0 ratings
1 star 2 stars 3 stars 4 stars 5 stars
comments

Opium Of The People Bass Tab

   
Band: Slipknot
Song: Opium Of The People
Tabbed by: 555_Maggot_666

Intro
D|--------------------------| 
A|--------------------------| 
E|--------------------------| 
B|-\--0--0--00-0-00~--------|

D|----------------------------------------------------------------| 
A|----------------------------------------------------------------| x2 
E|----------------------------------------------------------------|Hold last 
B|--0--111111--0--111111--00--111111--0--111111-00----------------|note until
                                                                   bridge.  
Bridge
D|--------------------------------| 
A|--------------------------------| 
E|--------------------------------| 
B|--/--/--/--/--0--3-2-1/2-x-x----|

D|--------------------------------------|
A|--------------------------------------| x2
E|--------------------------------------|
B|-0--3-2-1/2-x-x-----------------------| 
 
D|----------------------------------------|
A|----------------------------------------|
E|----------------------------------------|
B|-0--3-2-1--5-6-7-8^-----11-11-11--------|

Verse
D|--------------| 
A|--------------| x8
E|--------------|
B|-7-1-0-8------|
[ Tab from: http://www.guitartabs.cc/tabs/s/slipknot/opium_of_the_people_btab_ver_3.html ]
Bridge
D|--------------------------------------|
A|--------------------------------------| x3
E|--------------------------------------|
B|-0--3-2-1/2-x-x-----------------------| 
 
D|-----------------------------------|
A|-----------------------------------|
E|-----------------------------------|
B|-0--3-2-1--5-6-7-8^-----11-11-11---|

D|------------------------------------|
A|------------------------------------| x3
E|------------------------------------|
B|-0--3-2-1/2-x-x---------------------| 
 
D|-----------------------------------|
A|-----------------------------------|
E|-----------------------------------|
B|-0--3-2-1--5-6-7-8^-----11-11-11---|

Verse
D|--------------| 
A|--------------| x8
E|--------------|
B|-7-1-0-8------|

Chorus
D|-------------------------------------|
A|-------------------------------------| x4
E|-------------------------------------|
B|-5-10-8-5---5-8-10-8-5---5~----------|

Bridge
D|--------------------------------------------------------------------|
A|--------------------------------------------------------------------|
E|--------------------------------------------------------------------|
B|-0-------------------------00-------------------------0-0-0-0-0-0-\-|

Play until next Chorus
D|------|
A|------|
E|------|
B|-0-00-|

Chorus
D|-------------------------------------|
A|-------------------------------------| x4
E|-------------------------------------|
B|-5-10-8-5---5-8-10-8-5---5~----------|

Play Until End
D|------|
A|------|
E|------|
B|-0-00-|

This may not be right but it's my version so.. Blah!
Comments