Slipknot - Opium Of The People Chords & Tabs

 

Opium Of The People Chords & Tabs

Slipknot Chords & Tabs

Version: 2 Type: Bass Tab 0 ratings
1 star 2 stars 3 stars 4 stars 5 stars
comments

Opium Of The People Bass Tab

   
Band: Slipknot
Song: Opium of the People
Album: Vol. 3 (The Subliminal Verses)
Tabbed By: Daniel Luengas
E-Mail: daniel182col@hotmail.com

This is one of my favorite Slipknot songs, I know Slipknots bass player uses a 5 string 
but I don't have one so I did it with a 4 string bass and it sounds really good, enjoy.....  (vote for me)

Intro:
E |--------|
B |--------|  Do this couple of times
F#|--------|  while guitar picking
B |-0-00-0-|

Guitar do sliding and then

E |-----------|
B |-----------|
F#|-----------|  X8
B |-0-3-3-3-0-|

Guitar picking again and then

E |-----------------|     |--------|           
B |-----------------|     |--------|                
F#|-0-4-0-1-0-4-0-0-| X4  |--------|             
B |-0-4-0-1-0-4-0-0-|     |-3-5-7b-|

Verse:
E |------------------|
B |------------------|
F#|------------------|  X8
B |-7-7-5-5-3-3-9-9--|
[ Tab from: http://www.guitartabs.cc/tabs/s/slipknot/opium_of_the_people_btab_ver_2.html ]
E |-----------------|     |--------|           
B |-----------------|     |--------|                
F#|-0-4-0-1-0-4-0-0-| X4  |--------|             
B |-0-4-0-1-0-4-0-0-|     |-3-5-7b-|

Guitar palm mute, do this after it

E |---------------|
B |---------------|
F#|-------------7-|  X4
B |-7-7-5-5-3-3---|

Chorus:
E |---------|    |---------|
B |---------|    |---------|  While guitar picking
F#|---------|    |---------|  X2
B |-7-5-3-5-|    |-7-5-3-5-|

E |--------------------|
B |--------------------|
F#|--------------------|  X2
B |-0-3-1-0--0-0-3-1-0-|

Introdule:
E |----|
B |----|
F#|----| Do this quick
B |-0~-|

Guitar do same thing, but bass don't until
Corey (singer) comes on

E |--------|
B |--------|
F#|--------| Couple of times
B |-0-00-0-|

Chorus:
E |---------|    |---------|
B |---------|    |---------|  While guitar picking
F#|---------|    |---------|  X4
B |-7-5-3-5-|    |-7-5-3-5-|

Outro:
E |--------|
B |--------|
F#|--------| Do this the rest of the song
B |-0-00-0-|

Any questions mail me and I'll fix it.
Comments