Slipknot - Only One Chords & Tabs

 

Only One Chords & Tabs

Slipknot Chords & Tabs

Version: 3 Type: Tab 0 ratings
1 star 2 stars 3 stars 4 stars 5 stars
comments

Only One Tab

   
- Slipknot -
- ONLY ONE -
submitted by: Barret Strickland

Tuning : B-F#-B-E-G#-C#

Key:
pm.  - Palm Mute
r    - Release 
\    - Scratch 
x    - Mute String 
Riff1

B |-0--3-2-1-0--4-3-1-3-
F#|-0--3-2-1-0--4-3-1-3-
B |-0--3-2-1-0--4-3-1-3-

Riff1a

E |-9--x-----///-
B |-8--x---///---
F#|-7--x-///-----

Riff2
[ Tab from: http://www.guitartabs.cc/tabs/s/slipknot/only_one_tab_ver_3.html ]
B |-4-2-1-3-
F#|-4-2-1-3-
B |-4-2-1-3-

Riff3

B |-0x-0x-0x-1-3-
F#|-0x-0x-0x-1-3-
B |-0x-0x-0x-1-3-

Riff4

B |-1-0-x-----
F#|-1-0-x-3-1-
B |-1-0-x-----

Riff5

B |-x-x-x-x-
F#|-x-x-x-x-
B |-x-x-x-x-

Riff6

B |-1r0-2-3-2-1-2-
F#|-1r0-2-3-2-1-2-
B |-1r0-2-3-2-1-2-


Riff7

B |-1-0-
F#|-1-0-
B |-1-0-





Comments