Slipknot - No Life Chords & Tabs

 

No Life Chords & Tabs

Slipknot Chords & Tabs

Version: 1 Type: Tab 0 ratings
1 star 2 stars 3 stars 4 stars 5 stars
comments

No Life Tab

   
- NO LIFE -
submitted by: Barret Strickland

Tuning : B-F#-B-E-G#-C#

Key:
pm.  - Palm Mute
h    - Hammer 
>    - Slide
x    - Mute String 


Riff1

B |-----------------------
F#|-----------------------
B |-0h2^3r2-0h2^3r2-0-333-


Riff2

B |-33--1--2--0--xxx-
F#|-33--1--2--0--xxx-
B |-33--1--2--0--xxx-


Riff2a

C#|-----------------------
G#|--15h16r15h16-18-------  Thats 15 not 1 and 5 etc...
E |-----------------------


Riff2b
[ Tab from: http://www.guitartabs.cc/tabs/s/slipknot/no_life_tab.html ]
C#|-----------------------
G#|-18-18-18-15-----------  Thats 18 not 1 and 8 etc..  
E |-----------------------


Riff2c

C#|--x-x-x-x--------------
G#|--x-x-x-x--------------	Mute it up at the 15th fret
E |-----------------------


Riff3

B |-------------------------
F#|-------------------------
B |-2r1r0-2r1r0-2r1r0-0-3-3-



Riff4

B |-2-22-2-22-2-22-5-5-5-
F#|-2-22-2-22-2-22-x-x-x-
B |-0-00-0-00-0-00-3-3-3-
    pm.................


Riff5

B |-1-xxx-1-xxx-2-2-	      B |-1-xxx-1-xxx-3-3-
F#|-1-xxx-1-xxx-2-2-	or    F#|-1-xxx-1-xxx-3-3-  Which ever sounds beter to you.
B |-1-xxx-1-xxx-2-2-	      B |-1-xxx-1-xxx-3-3-




Comments