Slipknot - New Abortion Chords & Tabs

 

New Abortion Chords & Tabs

Slipknot Chords & Tabs

Version: 2 Type: Tab 0 ratings
1 star 2 stars 3 stars 4 stars 5 stars
comments

New Abortion Tab

   
New Abortion-Slipknot
Iowa

Drop A:
A E A D F# B

gtr 1.

e-----------------------------------------------------------------
b-----------------------------------------------------------------
g-----------------------------------------------------------------
d-----------------------------------------------------------------
a-----------------------------------------------------------------
d-0-0-0----0-0-0-0----0-0-0-0----0-0-0-0----0-0-0-0----0-0-0-0----

gtr 1. Riff A

e-----------------------------------------------------------------
b-----------------------------------------------------------------
g-----------------------------------------------------------------
d-----------------------------------------------------------------
a-----------------------------------------------------------------
d-0-0-0-----------0-0-0----------0-0-0-----------0-0-0------------

Gtr 2. Riff A1

e-----------------------------------------------------------------
b-----------------------------------------------------------------
g-----------------------------------------------------------------
d-----------------------------------------------------------------
a-----------------------------------------------------------------
D-0-1-2-0-2-3-0-1-2-0-2-3-0-2-7-6-0-1-2-0-2-3-0-1-2-0-2-3-0-2-7-6-

Riff B Verse
[ Tab from: http://www.guitartabs.cc/tabs/s/slipknot/new_abortion_tab_ver_2.html ]
e-----------------------------------------------------------------
b-----------------------------------------------------------------
g-----------------------------------------------------------------
d-----------------------------------------------------------------
A-0-1-2-0-2-3-0-1-2-0-2-3-0-2-7-6-0-1-2-0-2-3-0-1-2-0-2-3-0-2-7-6-
D-0-1-2-0-2-3-0-1-2-0-2-3-0-2-7-6-0-1-2-0-2-3-0-1-2-0-2-3-0-2-7-6-

Chorus:

e-----------------------------------------------------------------
b-----------------------------------------------------------------
g-----------------------------------------------------------------
d-----------------------------------------------------------------
a-6--6--6--5--5-5-5-5-5--3--0-------------------------------------
d-6--6--6--5--5-5-5-5-5--3--0--0--0--0--0-0-0-0--0--0-------------

Verse 3

e-----------------------------------------------------------------
b-----------------------------------------------------------------
g-----------------------------------------------------------------
d-----------------------------------------------------------------
a-0--0-----------------------0--0---------------------------------
d-0--0--222220-444440-555555-0--0--222220-4444440-555555----------

e-----------------------------------------------------------------
b-----------------------------------------------------------------
g-----------------------------------------------------------------
d-----------------------------------------------------------------
a-2-1-0-2-0-4-0-5--3-2-1--0-2-0-4-0-5--3-2-1--0-2-0-4-0-5---------
d-2-1-0-2-0-4-0-5--3-2-1--0-2-0-4-0-5--3-2-1--0-2-0-4-0-5---------

thatís all
thereís a bunch of turn tables arr for gtr 
w/ whammy pedal up 2 oct. but there is way
too much to include

trevor jones
timmy91199@yahoo.ca
Comments