Slipknot - My Plague Chords & Tabs

 

My Plague Chords & Tabs

Slipknot Chords & Tabs

Version: 1 Type: Tab 0 ratings
1 star 2 stars 3 stars 4 stars 5 stars
comments

My Plague Tab

SLIPKNOT
MY PLAGUE


Intro riff
 --------------------------------------------------
 --------------------------------------------------
.--------------------------------------------------.
.--------------------------------------------------.
 ---0----0----0----0----0--------------------------
 ---0----0----0----0----0----1--------2----2----1--


Verse 1
 -------------------------------- -------------------------
 -------------------------------- -------------------------
.--------------------------------.-------------------------
.--------------------------------.-------------------------
 ---0--0--0--0--0---------------- --0--0--0--0--0----------
 ---0--0--0--0--0--1----2--2--1-- --0--0--0--0--0--------1-


 ------------------------- -------------
 ------------------------- -------------
.-------------------------.-------------
.-------------------------.-------------
 ---0--0--0--------------- ---0--0--0---
 ---0--0--0--1----2--2--1- ---0--0--0---


Verse 3
-----------------------------------------
-----------------------------------------
.----------------------------------------.
.----------------------------------------.
---0----0----0----1--------2----2----1---
---0----0----0----1--------2----2----1---

[ Tab from: http://www.guitartabs.cc/tabs/s/slipknot/my_plague_tab.html ]
Chorus
------------------------------------------------------------------------------------------
------------------------------------------------------------------------------------------
------------------7--------7----7----10-------10---10---12--------12----12--11-(12)-(12)--
------------------------------------------------------------------------------------------
---0----0----0----5--------5----5----8--------8----8----10--------10----10----------------
---0----0----0----------------------------------------------------------------------------


---------------------------------------------------------------------------------------------------------------------
---8----8----8----8----8----8----8----8----8----8----8----8----8-----------------------------------------------------
-(12)-(12)-(12)-(12)-(12)-(12)-(12)-(12)-(12)-(12)-(12)-(12)-(12)--------------------------------------7----7---10--
---------------------------------------------------------------------------------------------------------------------
---------------------------------------------------------------------------0--------0----0----5--------5----5----8---
---------------------------------------------------------------------19\---0--------0----0---------------------------
Comments