Slipknot - Me Inside Chords & Tabs

 

Me Inside Chords & Tabs

Slipknot Chords & Tabs

Version: 1 Type: Bass Tab 0 ratings
1 star 2 stars 3 stars 4 stars 5 stars
comments

Me Inside Bass Tab

   
Mxtabs [http://www.mxtabs.net]
Song : me inside
Band : Slipknot
tabbed by modus operendi
jamie cushion

RIFF 1
D|----------|
A|----------|
E|----------|
B|-0-0-1P0--|

RIFF 2
D|-------------|
A|-------------|
E|-------------|
B|1P0-1P0-0-0--|

RIFF 3
D|--------------------|
A|--------------------|
E|---------2-2-2-2----|
B|1-1-1-1-------------|
[ Tab from: http://www.guitartabs.cc/tabs/s/slipknot/me_inside_btab.html ]
RIFF 4
D|-------------------|
A|-------------------|
E|-------------------|
B|-0-6-5-3-1-3-0-1-3-|

RIFF 5
D|------------------------------------------|
A|------------------------------------------|
E|------------------------------------------|
B|-0-0-1P0--0-0-0-1P0--0-0-0-1P0--0-0-0-1P0-|

RIFF 6
D|-------------------------|
A|-------------------------|
E|-------------------------|
B|-0-0-0-0-0-1-0-0-0-0-0-1-|
Comments