Slipknot - Liberate Chords & Tabs

 

Liberate Chords & Tabs

Slipknot Chords & Tabs

Version: 2 Type: Tab 0 ratings
1 star 2 stars 3 stars 4 stars 5 stars
comments

Liberate Tab

   
Liberate-Slipknot
Slipknot

Drop B
B F# B E G# C#

e----------------------------------------------------------
b----------------------------------------------------------
g----------------------------------------------------------
d----------------------------------------------------------
a----------------------------------------------------------
d-13-0--0-0--0-0-0--0-0-0--0-13-0--0-0--0-0-0--0-0-0--0----

Chorus    ...liberate, my madness....

Fig 1. x3

e----------------------------------------------------------
b----------------------------------------------------------
g----------------------------------------------------------
d----------------------------------------------------------
a-1--0--1-0--1-0--1-0--1--0--1-0--1-0--1-0-----------------
d-1--0--1-0--1-0--1-0--1--0--1-0--1-0--1-0-----------------

e----------------------------------------------------------
b----------------------------------------------------------
g----------------------------------------------------------
d----------------------------------------------------------
a-------------5--4-----0-----------------------------------
d-1--0--5--3--------3--0-----------------------------------

Interlude:

e----------------------------------------------------------
b----------------------------------------------------------
g----------------------------------------------------------
d----------------------------------------------------------
a-1--0----0-1-0-5-4------------0-1--0----0-1-0-4-3---2--0--
d-1--0----0-1-0-5-4-58585858~~-0-1--0----0-1-0-4-3---2--0--

Verses

e----------------------------------------------------------
b----------------------------------------------------------
g----------------------------------------------------------
d----------------------------------------------------------
a-1--0----0-1-0-5-4------------0-1--0----0-1-0-5-4---------
d-1--0----0-1-0-5-4-69696969~~-0-1--0----0-1-0-5-4-6969696~

e----------------------------------------------------------
b----------------------------------------------------------
g----------------------------------------------------------
d----------------------------------------------------------
a-1--0----00-1-0-5-4------------0-1-0----00-1-0-5-4--------
d-1--0----00-1-0-5-4-58585858~~-0-1-0----00-1-0-5-4-696969~

Pre Chorus ...stand off of the shit...

Fig 2.
[ Tab from: http://www.guitartabs.cc/tabs/s/slipknot/liberate_tab_ver_2.html ]
e-----------------------------------------
b-----------------------------------------
g-----------------------------------------
d-----------------------------------------
a-1-0---0---0---00-1-0-5-4----------------
d-1-0---0---0---00-1-0-5-4-58585858~~-----

e-----------------------------------------
b-----------------------------------------
g-----------------------------------------
d-----------------------------------------
a-1-0---0---0---00-1-0-5-4----------------
d-1-0---0---0---00-1-0-5-4-69696969~~-----

Bridge: Fig.3 x4

e-----------------------------------------
b-----------------------------------------
g-----------------------------------------
d-----------------------------------------
a-0--1---0--1---0---1---0--1---0-1---0-1--
d-0--1---0--1---0---1---0--1---0-1---0-1--

e-----------------------------------------
b-----------------------------------------
g-----------------------------------------
d-----------------------------------------
a-5------5------5-------5------5-----5----
d----1------1-------1------1-----1-----1--

gtr 1. Riff B

e-----------------------------------------
b-----------------------------------------
g-----------------------------------------
d-8-8-8b-8b-8b-8b-8b-8b-8b-8b-8b-8b-8b----
a-----------------------------------------
d-----------------------------------------

gtr 2. Fig 4

e-----------------------------------------
b-----------------------------------------
g-----------------------------------------
d-----------------------------------------
a-8--0-0-0-0-0-1-1-0-9--0-0-0-0-0-1-1-0---
d-8--0-0-0-0-0-1-1-0-9--0-0-0-0-0-1-1-0---

gtr 1.

e-----------------------------------------
b-----------------------------------------
g-----------------------------------------
d-8b-8b-8b-8b-8b-8b-8b-8-8-8-8-8-8-9-8-8--
a-----------------------------------------
d-----------------------------------------

gtr 2.

e-----------------------------------------
b-----------------------------------------
g-----------------------------------------
d-----------------------------------------
a-8--0-0-0-0-0-1-1-0-9--0-0-0--0-0--0-1---
d-8--0-0-0-0-0-1-1-0-9--0-0-0--0-0--0-1-8~

Outro:

e-----------------------------------------
b-----------------------------------------
g-----------------------------------------
d-----------------------------------------
a-2----1-----0----1----2----1----0----1---
d-2----1-----0----1----2----1----0----1---




e-----------------------------------------
b-----------------------------------------
g---------(16)----------------------------
d--------------(18)-----------------------
a-2----1-------------0-0-0-2--------------
d-2----1-------------0-0-0-2--------------

thatís all

trevor jones
timmy91199@yahoo.ca
Comments