Slipknot - Liberate Chords & Tabs

 

Liberate Chords & Tabs

Slipknot Chords & Tabs

Version: 1 Type: Bass Tab 0 ratings
1 star 2 stars 3 stars 4 stars 5 stars
comments

Liberate Bass Tab

   
Artist : Slipknot
Track : Liberate
Album : Self-titled
Tune : (High to low) D, A, E, B ( 4- string bass )
Tabbed by Brendan Mearns- bren@riconnect.com
 
INTRO 
 
D  ---------------------------------------------------------------------
A  ---------------------------------------------------------------------
E  ---------------------------------------------------------------------
B  ----- 4-- 0--- 00--000--00------------------------------------
 
VERSE 1
 
D  ----------------------------------------------------------------------
A  ----------------------------------------------------------------------
E  ----------------------------------------------------------------------
B  ------- 1-0-------0-1-0-------- 0------4-------------------------
        Bend on last note.
 
VERSE 2
D -----------------------------------------------------------------------
A  ----------------------------------------------------------------------
E  ----------------------------------------------------------------------
B  ------ 1- 0---0-0-0-0-0---0-0-0----1- 0-0----0-1-0-----4-
        Bend last note.
BRIDGE 1and BRIDGE 2
 
D -----------------------------------------------------------------------
A  ----------------------------------------------------------------------
E  ----------------------------------------------------------------------
B  ---------- 0-0---- 0-0---- 0-0---- 0-0---- 0-0----------------
 
D  ----------------------------------------------------------------------
A  ----------------------------------------------------------------------
E  ---------------- 7----8------7----8------ 7----8-----------------
B  ----------------------------------------------------------------------
 
PRE-CHORUS and CHORUS
 
D 
----------------------------------------------------------------------------
---------------------------------
A 
----------------------------------------------------------------------------
---------------------------------
E  ------- 5--7------------------------------------------------------- 5 ^
7--5------------- 7------ 5-----
B  ------------------ 7--7---- 9--9---- 10--10---- 12--12------------------- 7-
5- 3----- 3--------5-
 
BRIDGE
 
D 
----------------------------------------------------------------------------
-----------------------------------
A 
----------------------------------------------------------------------------
-----------------------------------
E 
----------------------------------------------------------------------------
--------------------------------5-
B  ------ 5----7 \ ---- 0--- x--- 0-0--- x--- 0--- x--- 0-0--- x--- 0-0-0---
x-  0- x-- 0-5 ^ 7---
 
OUTRO
 
D  ----------------------------------------------------
A  ----------------------------------------------------
E  ----------------------------------------------------
B  --------- 3--- 3--- 1------- 3--- 3--- 1-------
 
 
That's all of the parts that I've figured out but you need to hear the song to
get the rhythm. It's all pretty easy once you get the rhythm. Have fun . I'll
have more heavy metal tabs soon. 




[ Tab from: http://www.guitartabs.cc/tabs/s/slipknot/liberate_btab.html ]
Comments