Slipknot - Left Behind Chords & Tabs

 

Left Behind Chords & Tabs

Slipknot Chords & Tabs

Version: 9 Type: Tab 0 ratings
1 star 2 stars 3 stars 4 stars 5 stars
comments

Left Behind Tab

       SlipKnoT - Left Behind                                   
                                 
Mick Thomson   (7)
                                                                                                                   
C#||--------------------------|--------------------------|
G#||--------------------------|--------------------------|
E ||--------------------------|--------------------------|
B ||--------------------------|--------------------------|
F#||--------------------1/-6--|--6--------1--------------|
B ||--8/-7--7--2--2/-1--------|-----0--0-----2--1--1/-6--|


                                                      
--------------------------|--------------------------|
--------------------------|--------------------------|
--------------------------|--------------------------|
--------------------------|--------------------------|
-----------1--1-----1/-6--|--6--------1--------------|
--6--0--0--------0--------|-----0--0-----2--1--1/-6--|


                                                        2x
|---------------------------|---------------------------||
|---------------------------|---------------------------||
|*--------------------------|--------------------------*||
|*--------------------------|--------------------------*||
|------------1--1-----1/-6--|--6--------1---------------||
|---6--0--0--------0--------|-----0--0-----2--1--1/-6---||


                                                          
--------------------------|------------------------------|
--------------------------|------------------------------|
--------------------------|--8--8--8--8--8-8-8-8-8-8-8-8-|
--------------------------|--8--8--8--8--8-8-8-8-8-8-8-8-|
-----------1--1-----1/-6--|--6--6--6--6--6-6-6-6-6-6-6-6-|
--6--0--0--------0--------|------------------------------|


                                                        
|---------------------------|--------------------------|
|---------------------------|--------------------------|
|*-----------------------8--|--8/-7--7-----------------|
|*--1--0--0--6--6--0--0--x--|--x--x--x--6--6--0--0--1--|
|---1--0--0--6--6--0--0--6--|--6/-5--5--6--6--0--0--1--|
|---1--0--0--6--6--0--0-----|-----------6--6--0--0--1--|


                                                      3x
--------------------------|---------------------------||
--------------------------|---------------------------||
-----------------------8--|--8/-7--7-----------------*||
--1--0--0--6--6--0--0--x--|--x--x--x--3--3--3--3--1--*||
--1--0--0--6--6--0--0--6--|--6/-5--5--3--3--3--3--1---||
--1--0--0--6--6--0--0-----|-----------3--3--3--3--1---||


                                                                           
------------------------|----------------------|--------------------------|
------------------------|----------------------|--------------------------|
--3--3----8--8----3--3--|----8--8----3----8----|--------7--7--7--7--7--7--|
--x--x----x--x----x--x--|----x--x----x----x----|--6--6--------------------|
--1--1----6--6----1--1--|----6--6----1----6----|--6--6--------------------|
------------------------|----------------------|--6--6--------------------|


                                                                             
--------------------------||-------------------------|----------------------|
--------------------------||-------------------------|----------------------|
--------2--2--2--2--2--2--||*--3--3----8--8----3--3--|----8--8----3----8----|
--1--1--------------------||*--x--x----x--x----x--x--|----x--x----x----x----|
--1--1--------------------||---1--1----6--6----1--1--|----6--6----1----6----|
--1--1--------------------||-------------------------|----------------------|


                                                      2x
--------------------------|---------------------------||
--------------------------|---------------------------||
--------7--7--7--7--7--7--|--------2--2--2--2--2--2--*||
--6--6--------------------|--1--1--------------------*||
--6--6--------------------|--1--1---------------------||
--6--6--------------------|--1--1---------------------||


                                                      
--------------------------|--------------------------|
--------------------------|--------------------------|
--------------------------|--------------------------|
--------------------------|--------------------------|
--------------------1/-6--|--6--------1--------------|
--8/-7--7--2--2/-1--------|-----0--0-----2--1--1/-6--|


                                                          
--------------------------|------------------------------|
--------------------------|------------------------------|
--------------------------|--8--8--8--8--8-8-8-8-8-8-8-8-|
--------------------------|--8--8--8--8--8-8-8-8-8-8-8-8-|
-----------1--1-----1/-6--|--6--6--6--6--6-6-6-6-6-6-6-6-|
--6--0--0--------0--------|------------------------------|


                                                        
|---------------------------|--------------------------|
|---------------------------|--------------------------|
|*-----------------------8--|--8/-7--7-----------------|
|*--1--0--0--6--6--0--0--x--|--x--x--x--6--6--0--0--1--|
|---1--0--0--6--6--0--0--6--|--6/-5--5--6--6--0--0--1--|
|---1--0--0--6--6--0--0-----|-----------6--6--0--0--1--|


                                                        
--------------------------|---------------------------||
--------------------------|---------------------------||
-----------------------8--|--8/-7--7-----------------*||
--1--0--0--6--6--0--0--x--|--x--x--x--3--3--3--3--1--*||
--1--0--0--6--6--0--0--6--|--6/-5--5--3--3--3--3--1---||
--1--0--0--6--6--0--0-----|-----------3--3--3--3--1---||


                                                                           
------------------------|----------------------|--------------------------|
------------------------|----------------------|--------------------------|
--3--3----8--8----3--3--|----8--8----3----8----|--------7--7--7--7--7--7--|
--x--x----x--x----x--x--|----x--x----x----x----|--6--6--------------------|
--1--1----6--6----1--1--|----6--6----1----6----|--6--6--------------------|
------------------------|----------------------|--6--6--------------------|


                                                                             
--------------------------||-------------------------|----------------------|
--------------------------||-------------------------|----------------------|
--------2--2--2--2--2--2--||*--3--3----8--8----3--3--|----8--8----3----8----|
--1--1--------------------||*--x--x----x--x----x--x--|----x--x----x----x----|
--1--1--------------------||---1--1----6--6----1--1--|----6--6----1----6----|
--1--1--------------------||-------------------------|----------------------|


                                                      2x                     
--------------------------|---------------------------||--------------------|
--------------------------|---------------------------||--11----------------|
--------7--7--7--7--7--7--|--------2--2--2--2--2--2--*||--x-----------------|
--6--6--------------------|--1--1--------------------*||--8-----------------|
--6--6--------------------|--1--1---------------------||--------------------|
--6--6--------------------|--1--1---------------------||--------------------|


                                                                              
------------------|------------------|------------------|--------------------|
------------------|------------------|------------------|--11----------------|
------------------|------------------|------------------|--8-----------------|
------------------|------------------|------------------|--8-----------------|
------------------|------------------|------------------|--------------------|
------------------|------------------|------------------|--------------------|


                                                                
--------------------|------------------------------------------|
----------------11--|--11-11-11--11-11-11--11-11-11--11-11-11--|
--------------------|------------------------------------------|
--------------------|------------------------------------------|
--------------------|------------------------------------------|
--------------------|------------------------------------------|


                                                 
------------------------------------------------|
--12-12-12-12-12-12-12-12-12-12-12-12-12-12-13--|
--9--9--9--9--9--9--9--9--9--9--9--9--9--9------|
--9--9--9--9--9--9--9--9--9--9--9--9--9--9------|
------------------------------------------------|
------------------------------------------------|

[ Tab from: http://www.guitartabs.cc/tabs/s/slipknot/left_behind_tab_ver_9.html ]
                                                   
--------------------------------------------------|
--11-11-11-11-11-11-11-11-11-11-11-11-11-11-11-11-|
--x--x--x--x--x--x--x--x--x--x--x--x--x--x--x--x--|
--8--8--8--8--8--8--8--8--8--8--8--8--8--8--8--8--|
--------------------------------------------------|
--------------------------------------------------|


                                                                             
-------------------------------------|--------------------------------------|
--11-11-11-11-11-11-11-11-x----17----|--17----------16-16-16-16-16-16-16-16-|
--x--x--x--x--x--x--x--x--x----x-----|--------------x--x--x--x--x--x--x--x--|
--8--8--8--8--8--8--8--8-------14----|--------14----13-13-13-13-13-13-13-13-|
-------------------------------------|--------------------------------------|
-------------------------------------|--------------------------------------|


                                                   
--------------------------------------------------|
--16-16-16-16-16-16-16-16-16-16-16-16-16-16-16-16/|
--x--x--x--x--x--x--x--x--x--x--x--x--x--x--x--x--|
--13-13-13-13-13-13-13-13-13-13-13-13-13-13-13-13/|
--------------------------------------------------|
--------------------------------------------------|


                                                   
--------------------------------------------------|
--11-11-11-11-11-11-11-11-11-11-11-11-11-11-11-11-|
--x--x--x--x--x--x--x--x--x--x--x--x--x--x--x--x--|
--8--8--8--8--8--8--8--8--8--8--8--8--8--8--8--8--|
--------------------------------------------------|
--------------------------------------------------|


                                      
-------------------------------------|
--11-11-11-11-11-11-11-11-x----17----|
--x--x--x--x--x--x--x--x--x----x-----|
--8--8--8--8--8--8--8--8-------14----|
-------------------------------------|
-------------------------------------|


                                                   
--------------------------------------------------|
--17-17-17-17-17-17-17-17-16-16-16-16-16-16-16-16-|
--x--x--x-----------------------------------------|
--14-14-14----------------------------------------|
--------------------------------------------------|
--------------------------------------------------|


                                                                       
-----------------------------------------------|----------------------|
--16-16-16-16-16-16-16-16-16-16-16-16-16-16-x--|--11------------12----|
--------------------------------------------x--|--x-------------x-----|
-----------------------------------------------|--8-------------9-----|
-----------------------------------------------|----------------------|
-----------------------------------------------|----------------------|


                                                                             
------------------------|------------------------|--------------------------|
----11-11---------17----|--17/---16----16~-------|--16~-------16~---16~-16/-|
----x--x----------x-----|--x-----x---------------|--------------------------|
----8--8----------14----|--14/---13--------------|--------------------------|
------------------------|------------------------|--------------------------|
------------------------|------------------------|--------------------------|


                                            
----------------------|--------------------|
--11------------12----|----11--------------|
--x-------------x-----|----x---------------|
--8-------------9-----|----8---------------|
----------------------|--------------------|
----------------------|--------------------|


                                                                         
----------------------------------------------|-------------------------|
--16--16--16-16-16-16-16-16-16-16-16-16-16-16-|-------------------------|
--x---x---x--x--x--x--x--x--x--x--x--x--x--x--|-------------------------|
--13--13--13-13-13-13-13-13-13-13-13-13-13-13-|--x--x----x--x--x--x--x--|
----------------------------------------------|--x--x----x--x--x--x--x--|
----------------------------------------------|--x--x----x--x--x--x--x--|


                                                      
---------------------------|-------------------------|
---------------------------|-------------------------|
---------------------------|-------------------------|
--1-1-x----6-6-x----1-1-x--|--x--6-6-----6--6--6--6--|
--1-1-x----6-6-x----1-1-x--|--x--6-6-----6--6--6--6--|
--1-1-x----6-6-x----1-1-x--|--x--6-6-----6--6--6--6--|


                                                        
|---------------------------|--------------------------|
|---------------------------|--------------------------|
|*--------7--7--7--7--7--7--|--------2--2--2--2--2--2--|
|*--6--6--------------------|--1--1--------------------|
|---6--6--------------------|--1--1--------------------|
|---6--6--------------------|--1--1--------------------|


                                                2x                           
------------------------|-----------------------||--------------------------|
------------------------|-----------------------||--------------------------|
--3--3----8--8----3--3--|----8--8----3----8----*||--------7--7--7--7--7--7--|
--x--x----x--x----x--x--|----x--x----x----x----*||--6--6--------------------|
--1--1----6--6----1--1--|----6--6----1----6-----||--6--6--------------------|
------------------------|-----------------------||--6--6--------------------|


                                                      
--------------------------|--------------------------|
--------------------------|--------------------------|
--------2--2--2--2--2--2--|--------------------------|
--1--1--------------------|--------------------------|
--1--1--------------------|--------------------1/-6--|
--1--1--------------------|--8/-7--7--2--2/-1--------|


                                                        
--------------------------||---------------------------|
--------------------------||---------------------------|
--------------------------||*--------------------------|
--------------------------||*--------------------------|
--6--------1--------------||------------1--1-----1/-6--|
-----0--0-----2--1--1/-6--||---6--0--0--------0--------|


                                                        
---------------------------||--------------------------|
---------------------------||--------------------------|
--------------------------*||--------------------------|
--------------------------*||--------------------------|
--6--------1---------------||-----------1--1-----1/-6--|
-----0--0-----2--1--1/-6---||--6--0--0--------0--------|


                                                            
------------------------------||---------------------------|
------------------------------||---------------------------|
--8--8--8--8--8-8-8-8-8-8-8-8-||*--------------------------|
--8--8--8--8--8-8-8-8-8-8-8-8-||*--------------------------|
--6--6--6--6--6-6-6-6-6-6-6-6-||------------1--1-----1/-6--|
------------------------------||---6--0--0--------0--------|


                           3x                                            
---------------------------||--------------------|----------------------|
---------------------------||--------------------|----------------------|
--------------------------*||--------------------|----------------------|
--------------------------*||--------------------|----------------------|
--6--------1---------------||--------------------|----------------------|
-----0--0-----2--1--1/-6---||--0--0--------------|----------1--1/-6--6--|


                                                                           
-----------------------|-----------------------||-------------------------|
-----------------------|-----------------------||-------------------------|
-----------------------|-----------------------||*------------------------|
-----------------------|-----------------------||*------------------------|
-----------------------|-----------------------||-------------------------|
--0--------1--1/-6--6--|--0--------1--1/-6--6--||---0--0------1--1/-6--6--|


                                                                          
-----------------------|-----------------------|------------------------||
-----------------------|-----------------------|------------------------||
-----------------------|-----------------------|-----------------------*||
-----------------------|-----------------------|-----------------------*||
-----------------------|-----------------------|------------------------||
--0--------1--1/-6--6--|--0--------1--1/-6--6--|--0--------1--1/-6--6---||


                                                                         
------------------------|-----------------------|-----------------------|
------------------------|-----------------------|-----------------------|
------------------------|-----------------------|-----------------------|
------------------------|-----------------------|-----------------------|
------------------------|-----------------------|-----------------------|
--0--0------1--1/-6--6--|--0--------1--1/-6--6--|--0--------1--1/-6--6--|


                     
-------------------||
-------------------||
-------------------||
-------------------||
-------------------||
--0----------------||
Comments