Slipknot - Left Behind Chords & Tabs

 

Left Behind Chords & Tabs

Slipknot Chords & Tabs

Version: 7 Type: Tab 0 ratings
1 star 2 stars 3 stars 4 stars 5 stars
comments

Left Behind Tab

   
Band = Slipknot
Song = Left Behind
Album = Iowa (as if you didn’t know)

Ok this is my tab for “Left Behind” it took me a 
long time to tab so comments & corrections to  
guitarded75@hotmail.com please

The Tuning goes like this

E = C#
B = G#
G = E
D = B
A = F#
E = B
 
I know some of you out there don’t like drop d tuning but 
trust me this tuning works!
Here goes

Key
o     o   
o     o   = Repeat
\           = Slide

Intro:

C#----------------------------------------------------
G#----------------------------------------------------
E-----------------------------------------------------
B-----------------------------------------------------
F#----------------------1\6--6---------1--------------
B—8/7--7--2--2--1-----------0--0------2--1—1\6--------


C#--------------------------------------------------------------
G#-o----------------------------------------------------------o-
E---------------------------------------------------------------
B---------------------------------------------------------------
F#-o------------1--1-----1\6--6---------1---------------------o-
B-----6--0--0---------0-----------0--0-----2--1--1\6------------






Then this quick fill

C#----------------------------------------------------------
G#-8--8--8--8--8--8--8--8-----------------------------------
E---8--8--8--8--8--8--8--8----------------------------------
B---8--8--8--8--8--8--8--8----------------------------------
F#--6--6--6--6--6--6--6--6----------------------------------
B-----------------------------------------------------------


Verse

C#--------------------------------------------------------------
G#--------------------------------------------------------------
E----------------------------------8--7---7---------------------
B--1---0---0---6---6---0---0---x---x-\x---x---6---6---0---0---1-
F#-1---0---0---6---6---0---0---6---6-\5---5---6---6---0---0---1-
B--1---0---0---6---6---0---0------------------6---6---0---0---1-

Verse cont’d

C#---------------------------------------------------------------
G#---------------------------------------------------------------
E--------------------------------8---8\7---7---------------------
B----1---0---0---6---6---0---0---x---x\x---x---3---3---3---3---1-
F#---1---0---0---6---6---0---0---6---6\5---5---3---3---3---3---1-
B----1---0---0---6---6---0---0-----------------3---3---3---3---1-


Break 1
[ Tab from: http://www.guitartabs.cc/tabs/s/slipknot/left_behind_tab_ver_7.html ]
C#----------------------------------------------------------
G#----------------------------------------------------------
E---3----3----8-----8----3----3-----8----8----3----8--------
B---x----x----x-----x----x----x-----x----x----x----x--------
F#--1----1----6-----6----1----1-----6----6----1----6--------
B-----------------------------------------------------------









Chorus (Here one guitar plays the single notes & the other 
keeps playing the power chords)

C#---------------------------------------------------------
G#---------------------------------------------------------
E-------7--7--7--7--7--7------2--2--2--2--2--2-------------
B---6------------------------1-----------------------------
F#--6------------------------1-----------------------------
B---6------------------------1-----------------------------
Then play break 1 & repeat







Bridge Part 1

C#-------------------------------------------------------------------
G#-------------------------------------------------------------------
E--------------------------------------------------------------------
B--------------------------------------------------------------------
F#-1-1-1-1-1-1-6-6-6-6-6-6--1-1-1-1-1-1-6-6-6-6-6-6-1-1-1-1-6-6-6-6--
B--------------------------------------------------------------------

Bridge Pt 1 Cont’d

C#-------------------------------------------------------------------
G#-------------------------------------------------------------------
E--------------------------------------------------------------------
B--------------------------------------------------------------------
F#-------------------------------------------------------------------
B---6-6-6-6-6-6-6-6-6-6-6-6-6-6-6-6--1-1-1-1-1-1-1-1-1-1-1-1-1-1-1-1-


Bridge Pt 2 (this is played over the top of bridge pt1 after 
bridge 1 on its own )

C#-----------------------------------------------------------------
G#-----------------------------------------------------------------
E------------------------------------------------------------------
B------------------------------------------------------------------
F#-1-1-1-1-1-1-6-6-6-6-6-6-1-1-1-1-1-1-6-6-6-6-6-6-1-1-1-1-6-6-6-6-
B------------------------------------------------------------------


BridgePt2 cont’d

C#-----------------------------------------------------------------
G#-----------------------------------------------------------------
E------------------------------------------------------------------
B------------------------------------------------------------------
F#-----------------------------------------------------------------
B--6-6-6-6-6-6-6-6-6-6-6-6-1-1-1-1-1-1-1-1-1-1-1-1-1-1-1-1-1-1-1-1-



Then

Break 2

C#----------------------------------------------------------------
G#----------------------------------------------------------------
E-----------------------------------------------------------------
B---1-------6------1-------6-------6---6---6---6------------------
F#--1-------6------1-------6-------6---6---6---6------------------
B---1-------6------1-------6-------6---6---6---6------------------

There you go any bits I missed you should be able to figure out 
from what I’ve given you. 
Comments