Slipknot - Left Behind Chords & Tabs

 

Left Behind Chords & Tabs

Slipknot Chords & Tabs

Version: 6 Type: Tab 0 ratings
1 star 2 stars 3 stars 4 stars 5 stars
comments

Left Behind Tab

   
	     SONG: Left Behind
	     BAND: Slipknot
	    ALBUM: Iowa
   TRANSCRIBED BY: Chris Frazier (btabmaster@hotmail.com)
	     DATE: 08-13-2K1

 ----------------------------------------------------------------------------------------------

	TUNING: Drop D and down 1 and 1/2 step (B F# B E G# C#)

     Riff 1:
     1|-----------------------------------|
     2|-----------------------------------|
     3|-----------------------------------|
     4|-----------------------------------|
     5|-1p0-0---------1/6-6-----1-1-------|
     6|-------3-3-3-0-------0-0-----0-1/3-|

     Riff 2:
     1|---------------------------------|
     2|---------------------------------|
     3|---------------------------------|
     4|---------------------------------|
     5|-------1-1---1/6-6-----1-1-------|
     6|-1p0-0-----0-------0-0-----0-1/3-| IF YOU DDON'T KNOW WHAT THE
                                        NUMBERS ARE I LEFT THE BOTTOM
                                         THE OTHER WAY(YOU SHOULD GET IT)
     Riff 3:   
    C#|---------------------------------|
    G#|---------------------------------|
    E |---------------------------------|
    B |---------------------------------|
    F#|-------1-1---1/6-6-6-6-6-6-6-6-6-|
    B |-1p0-0-----0---------------------|
[ Tab from: http://www.guitartabs.cc/tabs/s/slipknot/left_behind_tab_ver_6.html ]
     Riff 4:
    C#|--------------------------------------------------------|
    G#|--------------------------------------------------------|
    E |--------------8--7------------------------8--7----------|
    B |-1-0-0-3-0--0-x--x-6--6-6-6--1-0-0-3-0--0-x--x-3--3-3-3-|
    F#|-1-0-0-3-0--0-6--5-6--6-6-6--1-0-0-3-0--0-6--5-3--3-3-3-|
    B |-1-0-0-3-0--0------6--6-6-6--1-0-0-3-0--0------3--3-3-3-|

     Riff 5:
    C#|------------------------------------------------------|
    G#|------------------------------------------------------|
    E |-----3-3-----3-3---3----------------------------------|
    B |-3-3-1-1-3-3-1-1-3-1--6-6-6-6-6-6-6-6-1-1-1-1-1-1-1-1-|
    F#|-1-1-----1-1-----1----6-6-6-6-6-6-6-6-1-1-1-1-1-1-1-1-|
    B |----------------------6-6-6-6-6-6-6-6-1-1-1-1-1-1-1-1-|
     PM - - - - - - - - - -

     Riff 6 (gtr 1):
    C#|-------------------------|
    G#|-------------------------|
    E |-3-3-3-3-3-3-3-3-3-3-3-3-|  either w/ diminishing volume or play chord once w/
    B |-1-1-1-1-1-1-1-1-1-1-1-1-|  digital delay
    F#|-------------------------|
    B |-------------------------|
     PM - - - - - - - - - - - -

     Riff 7 (gtr 2):
    C#|---------------------------------------------------|
    G#|---------------------------------------------------|
    E |---------------------------------------------------|
    B |------1111------1111-----111-----------------------|
    F#|-1111------1111------111---------------------------|
    B |-----------------------------6666666666-1111111111-|
      PM---- ---- ---- ---- --- --- ---------- ----------

     Riff 8:
    C#|--------------------|
    G#|--------------------|
    E |----------3-3-3-3---|
    B |-0--------1-1-1-1-0-|
    F#|-0----------------0-|
    B |-0----------------0-|
Comments