Slipknot - Left Behind Chords & Tabs

 

Left Behind Chords & Tabs

Slipknot Chords & Tabs

Version: 3 Type: Tab 1 rating
1 star 2 stars 3 stars 4 stars 5 stars
comments

Left Behind Tab

#----------------------------------PLEASE NOTE--------------------------------#
#This file is the author's own work and represents their interpretation of the#
#song. You may only use this file for private study, scholarship, or research.#
#-----------------------------------------------------------------------------#
#-- File created with Instab - http://www.pconline.com/~smcarey/instab.html --#
#-----------------------------------------------------------------------------#

Author/Artist: SLIPKNOT
Title: LEFT BEHIND
Album: IOWA
Transcribed by: JAHRED(J BUGLASS)
------------------------------------------------------------------------------
------------------------------------------------------------------------------
------------------------------------------------------------------------------
------------------------------------------------------------------------------
-------------------------------1---6---6------------1-------------------------
-8---7---7----2----2---1-------------------0---0--------2---1---1------6------
                                                                              

----------------------------------------------------------------------|---x8--
----------------------------------------------------------------------|-8-----
----------------------------------------------------------------------|-8-----
----------------------------------------------------------------------|-8-----
---------------1---1-------1---6----6-----------1---------------------|-6-----
--6----0--0------------0----------------0----0---------2--1--1---6----|-------
                            verse                                             

------------------------------------------------------------------------------
------------------------------------------------------------------------------
--------------------------------8--8---7---7----------------------------------
-1----0----0----6---6---0---0------------------6--6----0--0---1---------------
-1----0----0----6---6---0---0---6--6---5---5---6--6----0--0---1---------------
-1----0----0----6---6---0---0------------------6--6----0--0---1---------------
                                                                        x4    

------------------------------------------------------------------------------
------------------------------------------------------------------------------
--------------------------8---8---7---7---------------------------------------
----1--0--0--6--6---0--0------------------3--3--3--3---1----------------------
----1--0--0--6--6---0--0--6---6---5---5---3--3--3--3---1----------------------
----1--0--0--6--6---0--0------------------3--3--3--3---1----------------------
                        break                                                 

------------------------------------------------------------------------------
------------------------------------------------------------------------------
--3----3----8----8-----3---3---8----8-----3----8------------------------------
------------------------------------------------------------------------------
--1----1----6----6-----1---1---6----6-----1----6------------------------------
------------------------------------------------------------------------------
                     chorus                                                   
[ Tab from: http://www.guitartabs.cc/tabs/s/slipknot/left_behind_tab_ver_3.html ]
------------------------------------------------------------------------------
------------------------------------------------------------------------------
-----------7-----7------7-----7-----7------7--------2---2---2---2--2---2------
--6--------------------------------------------1------------------------------
--6--------------------------------------------1------------------------------
--6--------------------------------------------1------------------------------
                                                                    x4        

------------------------------------------------------------------------------
------------------------------------------------------------------------------
-3------3-----8----8-----3----3---8----8-----3-----8--------------------------
------------------------------------------------------------------------------
-1------1-----6----6-----1----1---6----6-----1-----6--------------------------
------------------------------------------------------------------------------
                              bridge                                          

------------------------------------------------------------------------------
------------------------------------------------------------------------------
------------------------------------------------------------------------------
------------------------------------------------------------------------------
------1-1-1-1-1-1-6-6-6-6-6-6-1-1-1-1-1-16-6-6-6-6-6-1-1-1-1-6-6-6-6----------
------------------------------------------------------------------------------
                                                                  x4          

------------------------------------------------------------------------------
------------------------------------------------------------------------------
------------------------------------------------------------------------------
------------------------------------------------------------------------------
------------------------------------------------------------------------------
-6-6-6-6-6-6-6-6-6-6-6-6-6-6-6-6--1-1-1-1-1-1-1-1-1-1-1-1-1-1-1-1-------------
                        bridge veriation                                      

------------------------------------------------------------------------------
------------------------------------------------------------------------------
------------------------------------------------------------------------------
------------------------------------------------------------------------------
-1-1-1-1-1-1-6-6-6-6-6-6-1-1-1-1-1-1-6-6-6-6-6-6-1-1-1-1-6-6-6-6--------------
------------------------------------------------------------------------------
                                                                              

------------------------------------------------------------------------------
------------------------------------------------------------------------------
------------------------------------------------------------------------------
------------------------------------------------------------------------------
------------------------------------------------------------------------------
-6-6-6-6-6-6-6-6-6-6-6-6-1-1-1-1-1-1-1-1-1-1-1-1-1-1-1-1-1-1-1-1--------------
                           break                                              

------------------------------------------------------------------------------
------------------------------------------------------------------------------
------------------------------------------------------------------------------
-1------------6----------1--------6-----------6---6---6---6-------------------
-1------------6----------1--------6-----------6---6---6---6-------------------
-1------------6----------1--------6-----------6---6---6---6-------------------
                                                                              

------------------------------------------------------------------------------
------------------------------------------------------------------------------
------------------------------------------------------------------------------
------------------------------------------------------------------------------
------------------------------------------------------------------------------
------------------------------------------------------------------------------
                                                                              

Comments