Slipknot - Left Behind Chords & Tabs

 

Left Behind Chords & Tabs

Slipknot Chords & Tabs

Version: 12 Type: Tab 0 ratings
1 star 2 stars 3 stars 4 stars 5 stars
comments

Left Behind Tab

G# (-------------------------------------------------------------------) 
C# (-------------------------------------------------------------------)
E  (-------------------------------------------------------------------)1x 
b  (---------------------1---------------------------------------1-----) 
F# (-----------1/6^v-1-1---1-0-------------------1-----1/6^v 1-1---1-0-) 
B  (-8-7-1^v-0------------------0-0-0-1/6-1--1-1---1-0-----------------) 


Guitar 1 and 2
G# (----------------------------------) 
C# (----------------------------------) 
E  (----------------------------------)3x 
b  (-----------------------------1----) 
F# (------------1-----1/6^v 1-1---1-0-) 
B  (--1/6-1--1-1---1-0----------------) 

G# (-------------------------------) 
C# (-------------------------------) 
E  (-----------------------8888888-)1x 
b  (-----------------------8888888-) 
F# (------------1-----1/6-6666666--) 
B  (--1/6-1--1-1---1-0-------------) 

into... 


Guitar 1
G# (------------------------------------------------) 
C# (------------------------------------------------) 
E  (------------------------------------------------)4x 
b  (--0-0-0-6-6-6-0-0-0-6-6-6-0-0-0-6-6-6-3-3-3-3-3-) 
F# (--0-0-0-6-6-6-0-0-0-6-6-6-0-0-0-6-6-6-3-3-3-3-3-) 
B  (--0-0-0-6-6-6-0-0-0-6-6-6-0-0-0-6-6-6-3-3-3-3-3-) 
                                      
                                     / \
     | These two are played in unison |
    \ /

Guitar 2 with Phaser
G# (----------------------------------------) 
C# (--------------888-777-----------888-777-) 
E  (--------------888-777-----------888-777-)4x 
b  (--------------666-555-----------666-555-) 
F# (----------------------------------------) 
B  (----------------------------------------) 

Guitars 1 and 2
G# (----------------------------------------) 
C# (----------------------------------------) 
E  (--3/8-1/8--1/8--------------------------)1x 
b  (--3/8-1/8--1/8--------------------------) 
F# (--1/6-3/6--3/6--------------------------) 
B  (----------------------------------------) 


NOTE: IF YOU WANT TO PLAY BOTH GUITARS PART IN THIS MAIN RIFF it sounds fine 

Guitar 1
G# (--------------------------------) 
C# (--------------------------------) 
E  (--8-8-8-8-8-8-8-8-2-2-2-2-2-2-2-) 
b  (--6-6-6-6-6-6-6-6-1-1-1-1-1-1-1-) 
F# (--6-6-6-6-6-6-6-6-1-1-1-1-1-1-1-) 
B  (--6-6-6-6-6-6-6-6-1-1-1-1-1-1-1-) 
 
****************************************************************************

Guitar 1
G# (----------------------------------) 
C# (----------------------------------) 
E  (----------------------------------)4x 
b  (--6-6-6-6-6-6-6-6-1-1-1-1-1-1-1---) 
F# (--6-6-6-6-6-6-6-6-1-1-1-1-1-1-1---) 
B  (--6-6-6-6-6-6-6-6-1-1-1-1-1-1-1---) 

                                    / \
    | These two are played in unison |
   \ /

Guitar 2 with Phaser
G# (------------------------) 
C# (--8-8-8-8-8-8/2-2-2-2-2-) 
E  (--8-8-8-8-8-8/2-2-2-2-2-)4x 
b  (--6-6-6-6-6-6/1-1-1-1-1-) 
F# (------------------------) 
B  (------------------------) 

Guitar 1 and 2
G# (----------------------------------)
C# (----------------------------------) 
E  (--3/8-1/8--1/8--------------------)4x 
b  (--3/8-1/8--1/8--------------------) 
F# (--1/6-3/6--3/6--------------------)
B  (----------------------------------) 


G# (---------------------------------) 
C# (---------------------------------) 
E  (---------------------------------)1x 
b  (-----------------------1---------) 
F# (-------------1/6---1-1---1-0-----) 
B  (--8-7-1^v-0------------------1/6-) 

cont. 

G# (-------------------------) 
C# (-------------------------) 
E  (------------------888888-)1x 
b  (------------------888888-) 
F# (------0-0---1-1/6-666666-) 
B  (--6/1-----0--------------) 

into... 

Guitar 1 
G# (------------------------------------------------)
C# (------------------------------------------------) 
E  (------------------------------------------------)1x 
b  (--0-0-0-6-6-6-0-0-0-6-6-6-0-0-0-6-6-6-3-3-3-3-3-) 
F# (--0-0-0-6-6-6-0-0-0-6-6-6-0-0-0-6-6-6-3-3-3-3-3-) 
B  (--0-0-0-6-6-6-0-0-0-6-6-6-0-0-0-6-6-6-3-3-3-3-3-) 

Guiatr 2 with Phaser
G# (----------------------------------------) 
C# (--------------888-777-----------888-777-) 
E  (--------------888-777-----------888-777-)1x 
b  (--------------666-555-----------666-555-) 
F# (----------------------------------------) 
B  (----------------------------------------) 

Guitar 1
G# (-----------------------------------------------------) 
C# (-----------------------------------------------------) 
E  (-----------------------------------------------------)1x 
b  (--0-0-0-6-6-6-0-0-0-6-6-6-0-0-0-6-6-6-3-3-3-3-3------) 
F# (--0-0-0-6-6-6-0-0-0-6-6-6-0-0-0-6-6-6-3-3-3-3-3------) 
B  (--0-0-0-6-6-6-0-0-0-6-6-6-0-0-0-6-6-6-3-3-3-3-3-1/13-) (or so) 

Guitar 2 with Phaser
G# (----------------------------------------) 
C# (--------------888-777-----------888-777-) 
E  (--------------888-777-----------888-777-)1x 
b  (--------------666-555-----------666-555-) 
F# (----------------------------------------) 
B  (----------------------------------------) 

Huitars 1 and 2
G# (----------------------------------------) 
C# (----------------------------------------) 
E  (--3/8-1/8--1/8--------------------------)1x 
b  (--3/8-1/8--1/8--------------------------) 
F# (--1/6-3/6--3/6--------------------------) 
B  (----------------------------------------) 


NOTE: IF YOU WANT TO PLAY BOTH GUITARS PART IN THIS MAIN RIFF it sounds fine 

Guitar 1
G# (--------------------------------) 
C# (--------------------------------) 
E  (--8-8-8-8-8-8-8-8-2-2-2-2-2-2-2-) 
b  (--6-6-6-6-6-6-6-6-1-1-1-1-1-1-1-) 
F# (--6-6-6-6-6-6-6-6-1-1-1-1-1-1-1-) 
B  (--6-6-6-6-6-6-6-6-1-1-1-1-1-1-1-) 

****************************************************************************

Guitar 1
G# (--------------------------------) 
C# (--------------------------------) 
E  (--------------------------------)4x 
b  (--6-6-6-6-6-6-6-6-1-1-1-1-1-1-1-) 
F# (--6-6-6-6-6-6-6-6-1-1-1-1-1-1-1-) 
B  (--6-6-6-6-6-6-6-6-1-1-1-1-1-1-1-)
[ Tab from: http://www.guitartabs.cc/tabs/s/slipknot/left_behind_tab_ver_12.html ]
                                      
                                  / \
  | These two are played in unison |
 \ /

Guitar 2 with Phaser
G# (------------------------) 
C# (--8-8-8-8-8-8/2-2-2-2-2-) 
E  (--8-8-8-8-8-8/2-2-2-2-2-)4x 
b  (--6-6-6-6-6-6/1-1-1-1-1-) 
F# (------------------------) 
B  (------------------------) 

Guitar 1 and 2
G# (--------------------------------) 
C# (--------------------------------)
E  (--3/8-1/8--1/8------------------)4x
b  (--3/8-1/8--1/8------------------)
F# (--1/6-3/6--3/6------------------) 
B  (--------------------------------) 



Guitar 1

(while gtr. 2 dose his own ***) 

G# (--------------------------------------------------------------) 
C# (--------------------------------------------------------------) 
E  (--------------------------------------------------------------)5x 
b  (--------------------------------------------------------------) 
F# (--1-1-1/6-6-6-1-1-1/6-6-6-1-1-1/6-----------------------------) 
B  (----------------------------------7-7-7-7-7-7-7/1-1-1-1-1-1-1-) 


G# (---------------------------------------------------------------------) 
C# (---------------------------------------------------------------------) 
E  (---------------------------------------------------------------------)1x 
b  (---------------------------------------------------------------------) 
F# (--1-1-1/6-6-6-1-1-1/6-6-6-1-1-1/6------------------------------------) 
B  (----------------------------------7-7-7-7-7-7-7/13-13-13-13-13-13-13-) 

then right into.... 

gtr. 2 /w delay (crank it so the intervals are slow let delay 3 times) 

G# (----------------------11-12-11------11-12-11-11111111-11-11--...
C# (---------11~~~~~--12^-----------12^--------------------------...
E  (--8-----8----------------------------------------------------... 
b  (--8-----8----------------------------------------------------...
F# (--6-----6----------------------------------------------------...
B  (-------------------------------------------------------------...
 
G#-----------11-12-11------------11~~~~~~------18^v^v-)
C#----------------------------------------------------)
E--15-17-15------------15-17-15-----------------------)1x 
b--15-17-15------------15-17-15-----------------------)
F#-15-17-15------------15-17-15-----------------------)
B-----------------------------------------------------)

Guitar 1 and 2 turn off delay
G# (------------------- 
C# (------------------- 
E  (-------------------- 
b  (--x\--x\--x\--x\--x\ 
F# (--x\--x\--x\--x\--x\ 
B  (--x\--x\--x\--x\--x\ 

STRAIGHT into... 

NOTE: IF YOU WANT TO PLAY BOTH GUITARS PART IN THIS MAIN RIFF it sounds fine 


Guitar 1
G# (--------------------------------) 
C# (--------------------------------) 
E  (--8-8-8-8-8-8-8-8-2-2-2-2-2-2-2-) 
b  (--6-6-6-6-6-6-6-6-1-1-1-1-1-1-1-) 
F# (--6-6-6-6-6-6-6-6-1-1-1-1-1-1-1-) 
B  (--6-6-6-6-6-6-6-6-1-1-1-1-1-1-1-) 

****************************************************************************

Guitar 1 
G# (--------------------------------) 
C# (--------------------------------) 
E  (--------------------------------)3x 
b  (--6-6-6-6-6-6-6-6-1-1-1-1-1-1-1-) 
F# (--6-6-6-6-6-6-6-6-1-1-1-1-1-1-1-) 
B  (--6-6-6-6-6-6-6-6-1-1-1-1-1-1-1-) 

                                  / \
  | These two are played in unison |
 \ /

Guiatr 2 with Phaser
G# (------------------------) 
C# (--8-8-8-8-8-8/2-2-2-2-2-) 
E  (--8-8-8-8-8-8/2-2-2-2-2-)3x 
b  (--6-6-6-6-6-6/1-1-1-1-1-) 
F# (------------------------) 
B  (------------------------) 

Guitars 1 and 2 
G# (--------------------------------) 
C# (--------------------------------)
E  (--3/8-1/8--1/8------------------)3x 
b  (--3/8-1/8--1/8------------------) 
F# (--1/6-3/6--3/6------------------) 
B  (--------------------------------) 

Guitar 1
G# (-------------------------------------) 
C# (-------------------------------------) 
E  (-------------------------------------)1x 
b  (--6-6-6-6-6-6-6-6-1-1-1-1-1-1-1------) 
F# (--6-6-6-6-6-6-6-6-1-1-1-1-1-1-1------) 
B  (--6-6-6-6-6-6-6-6-1-1-1-1-1-1-1-1/13-) (or so) 

Guitar 2 with Phaser
G# (------------------------) 
C# (--8-8-8-8-8-8/2-2-2-2-2-) 
E  (--8-8-8-8-8-8/2-2-2-2-2-)1x 
b  (--6-6-6-6-6-6/1-1-1-1-1-) 
F# (------------------------) 
B  (------------------------) 

Guitar 1
G# (--------------------------------) 
C# (--------------------------------) 
E  (--------------------------------)1x 
b  (----------------------1---------) 
F# (-------------1/6--1-1---1-0-----) 
B  (--8-7-1^v-0-----------------1/6-) 

G# (-------------------------------) 
C# (-------------------------------) 
E  (-------------------------------)2x 
b  (-----------------------1-------) 
F# (------0-0---1-1/6--1-1---1-0---) 
B  (--6/1-----0------------------0-) 

G# (---------------------------) 
C# (---------------------------) 
E  (---------------------------)1x 
b  (-----------------------1---) 
F# (------0-0---1-1/6--1-1---1-) 
B  (--6/1-----0----------------) 

Guitars 1 and 2
G# (---------------------------) 
C# (---------------------------) 
E  (---------------------------)2x 
b  (--6-6-0-8-8-0-/13-13-0-6\0-) 
F# (--6-6-0-8-8-0-/13-13-0-6\0-) 
B  (--6-6-0-8-8-0-/13-13-0-6\0-) 

G# (-----------------------------) 
C# (-----------------------------) 
E  (-----------------------------)1x 
b  (--6-6-0-8-8-0-/13-13-0-6-6-0-) 
F# (--6-6-0-8-8-0-/13-13-0-6-6-0-) 
B  (--6-6-0-8-8-0-/13-13-0-6-6-0-) 


G# (--------------------------) 
C# (--------------------------) 
E  (--------------------------)1x 
b  (--6-6-0-8-8-0-/13-13-0-6\-) 
F# (--6-6-0-8-8-0-/13-13-0-6\-) (abrupt hault) 
B  (--6-6-0-8-8-0-/13-13-0-6\-) 

STRAIGHT to 

Guitar 1
G# (------------)
C# (------------)
E  (------------)8x 
b  (------------)
F# (------------)
B  (--6--6-6-0--)


' = let sustain 

Guitar 2
G# (------------------------------------------)
C# (------------------------------------------) 
E  (------------------------------------------)3x 
b  (------------------------------------------) 
F# (------------------------------------------) 
B  (--6--6-6-0'''''''''''''''''''''''''''''''-)
Comments