Slipknot - Left Behind Chords & Tabs

 

Left Behind Chords & Tabs

Slipknot Chords & Tabs

Version: 10 Type: Tab 0 ratings
1 star 2 stars 3 stars 4 stars 5 stars
comments

Left Behind Tab

          SlipKnoT - Left Behind                                      

Jim Root (4)


                                                             
C#||------------------|------------------|------------------|
G#||------------------|------------------|------------------|
E ||------------------|------------------|------------------|
B ||------------------|------------------|------------------|
F#||------------------|------------------|------------------|
B ||------------------|------------------|------------------|


                                                    
----------------------||---------------------------|
----------------------||---------------------------|
----------------------||*--------------------------|
----------------------||*--------------------------|
----------------------||------------1--1-----1/-6--|
----------2--1--1/-6--||---6--0--0--------0--------|


                           2x                           
---------------------------||--------------------------|
---------------------------||--------------------------|
--------------------------*||--------------------------|
--------------------------*||--------------------------|
--6--------1---------------||-----------1--1-----1/-6--|
-----0--0-----2--1--1/-6---||--6--0--0--------0--------|


                                                        
--------------------------||---------------------------|
--------------------------||---------------------------|
--8--8--8--8--8b-8--8--8--||*--------------------------|
--x--x--x--x--x--x--x--x--||*--1--0--0--6--6--0--0--1--|
--6--6--6--6--6b-6--6--6--||---1--0--0--6--6--0--0--1--|
--------------------------||---1--0--0--6--6--0--0--1--|


                                                      
--------------------------|--------------------------|
--------------------------|--------------------------|
--------------------------|--------------------------|
--1--0--0--6--6--0--0--1--|--1--0--0--6--6--0--0--1--|
--1--0--0--6--6--0--0--1--|--1--0--0--6--6--0--0--1--|
--1--0--0--6--6--0--0--1--|--1--0--0--6--6--0--0--1--|


                           3x                                      
---------------------------||------------------|------------------|
---------------------------||------------------|------------------|
--------------------------*||------------------|------------------|
--1--0--0--3--3--3--3--1--*||------------------|------------------|
--1--0--0--3--3--3--3--1---||------------------|------------------|
--1--0--0--3--3--3--3--1---||------------------|------------------|


                                                      
--------------------------|--------------------------|
--------------------------|--------------------------|
--------------------------|--------------------------|
--6--6--6--6--6--6--6--6--|--1--1--1--1--1--1--1--1--|
--6--6--6--6--6--6--6--6--|--1--1--1--1--1--1--1--1--|
--6--6--6--6--6--6--6--6--|--1--1--1--1--1--1--1--1--|


                                                                             
|-------------------------|----------------------|--------------------------|
|-------------------------|----------------------|--------------------------|
|*--3--3----8--8----3--3--|----8--8----3----8----|--------------------------|
|*--3--3----8--8----3--3--|----8--8----3----8----|--6--6--6--6--6--6--6--6--|
|---1--1----6--6----1--1--|----6--6----1----6----|--6--6--6--6--6--6--6--6--|
|-------------------------|----------------------|--6--6--6--6--6--6--6--6--|


                           2x                           
---------------------------||--------------------------|
---------------------------||--------------------------|
--------------------------*||--------------------------|
--1--1--1--1--1--1--1--1--*||--------------------------|
--1--1--1--1--1--1--1--1---||--------------------1/-6--|
--1--1--1--1--1--1--1--1---||--8/-7--7--2--2/-1--------|


                                                      
--------------------------|--------------------------|
--------------------------|--------------------------|
--------------------------|--------------------------|
--------------------------|--------------------------|
--6--------1--------------|-----------1--1-----1/-6--|
-----0--0-----2--1--1/-6--|--6--0--0--------0--------|


                                                        
--------------------------||---------------------------|
--------------------------||---------------------------|
--8--8--8--8--8b-8--8--8--||*--------------------------|
--x--x--x--x--x--x--x--x--||*--1--0--0--6--6--0--0--1--|
--6--6--6--6--6b-6--6--6--||---1--0--0--6--6--0--0--1--|
--------------------------||---1--0--0--6--6--0--0--1--|


                                                      
--------------------------|--------------------------|
--------------------------|--------------------------|
--------------------------|--------------------------|
--1--0--0--6--6--0--0--1--|--1--0--0--6--6--0--0--1--|
--1--0--0--6--6--0--0--1--|--1--0--0--6--6--0--0--1--|
--1--0--0--6--6--0--0--1--|--1--0--0--6--6--0--0--1--|


                                                                             
---------------------------||------------------------|----------------------|
---------------------------||------------------------|----------------------|
--------------------------*||--3--3----8--8----3--3--|----8--8----3----8----|
--1--0--0--3--3--3--3--1--*||--x--x----x--x----x--x--|----x--x----x----x----|
--1--0--0--3--3--3--3--1---||--1--1----6--6----1--1--|----6--6----1----6----|
--1--0--0--3--3--3--3--1---||------------------------|----------------------|


                                                      
--------------------------|--------------------------|
--------------------------|--------------------------|
--------------------------|--------------------------|
--6--6--6--6--6--6--6--6--|--1--1--1--1--1--1--1--1--|
--6--6--6--6--6--6--6--6--|--1--1--1--1--1--1--1--1--|
--6--6--6--6--6--6--6--6--|--1--1--1--1--1--1--1--1--|


                                                                             
|-------------------------|----------------------|--------------------------|
|-------------------------|----------------------|--------------------------|
|*--3--3----8--8----3--3--|----8--8----3----8----|--------------------------|
|*--3--3----8--8----3--3--|----8--8----3----8----|--6--6--6--6--6--6--6--6--|
|---1--1----6--6----1--1--|----6--6----1----6----|--6--6--6--6--6--6--6--6--|
|-------------------------|----------------------|--6--6--6--6--6--6--6--6--|


                           2x                                   
---------------------------||----------------------------------|
---------------------------||----------------------------------|
--------------------------*||----------------------------------|
--1--1--1--1--1--1--1--1--*||----------------------------------|
--1--1--1--1--1--1--1--1---||--1-1-1-1-1-1/6-6-6-6-6-6/1-1-1-1-|
--1--1--1--1--1--1--1--1---||----------------------------------|


                                                                      
----------------------------------|----------------------------------|
----------------------------------|----------------------------------|
----------------------------------|----------------------------------|
----------------------------------|----------------------------------|
--1-1/6-6-6-6-6-6/1-1-1-1-6-6-6-6-|----------------------------------|
----------------------------------|--6-6-6-6-6-6-6-6-6-6-6-6-6-6-6-6/|


                                                                      
----------------------------------|----------------------------------|
----------------------------------|----------------------------------|
----------------------------------|----------------------------------|
----------------------------------|----------------------------------|
----------------------------------|--1-1-1-1-1-1/6-6-6-6-6-6/1-1-1-1-|
--1-1-1-1-1-1-1-1-1-1-1-1-1-1-1-1-|----------------------------------|


                                                                      
----------------------------------|----------------------------------|
----------------------------------|----------------------------------|
----------------------------------|----------------------------------|
----------------------------------|----------------------------------|
--1-1/6-6-6-6-6-6/1-1-1-1-6-6-6-6-|----------------------------------|
----------------------------------|--6-6-6-6-6-6-6-6-6-6-6-6-6-6-6-6/|

[ Tab from: http://www.guitartabs.cc/tabs/s/slipknot/left_behind_tab_ver_10.html ]
                                                                      
----------------------------------|----------------------------------|
----------------------------------|----------------------------------|
----------------------------------|----------------------------------|
----------------------------------|----------------------------------|
----------------------------------|--1-1-1-1-1-1/6-6-6-6-6-6/1-1-1-1-|
--1-1-1-1-1-1-1-1-1-1-1-1-1-1-1-1-|----------------------------------|


                                                                      
----------------------------------|----------------------------------|
----------------------------------|----------------------------------|
----------------------------------|----------------------------------|
----------------------------------|----------------------------------|
--1-1/6-6-6-6-6-6/1-1-1-1-6-6-6-6-|----------------------------------|
----------------------------------|--6-6-6-6-6-6-6-6-6-6-6-6-6-6-6-6/|


                                                                      
----------------------------------|----------------------------------|
----------------------------------|----------------------------------|
----------------------------------|----------------------------------|
----------------------------------|----------------------------------|
----------------------------------|--1-1-1-1-1-1/6-6-6-6-6-6/1-1-1-1-|
--1-1-1-1-1-1-1-1-1-1-1-1-1-1-1-1-|----------------------------------|


                                                                      
----------------------------------|----------------------------------|
----------------------------------|----------------------------------|
----------------------------------|----------------------------------|
----------------------------------|----------------------------------|
--1-1/6-6-6-6-6-6/1-1-1-1-6-6-6-6-|----------------------------------|
----------------------------------|--6-6-6-6-6-6-6-6-6-6-6-6-6-6-6-6/|


                                                                      
----------------------------------|----------------------------------|
----------------------------------|----------------------------------|
----------------------------------|----------------------------------|
----------------------------------|----------------------------------|
----------------------------------|--1-1-1-1-1-1/6-6-6-6-6-6/1-1-1-1-|
--1-1-1-1-1-1-1-1-1-1-1-1-1-1-1-1-|----------------------------------|


                                                                      
----------------------------------|----------------------------------|
----------------------------------|----------------------------------|
----------------------------------|----------------------------------|
----------------------------------|----------------------------------|
--1-1/6-6-6-6-6-6/1-1-1-1-6-6-6-6-|----------------------------------|
----------------------------------|--6-6-6-6-6-6-6-6-6-6-6-6-6-6-6-6/|


                                                                      
----------------------------------|----------------------------------|
----------------------------------|----------------------------------|
----------------------------------|----------------------------------|
----------------------------------|----------------------------------|
----------------------------------|--1-1-1-1-1-1/6-6-6-6-6-6/1-1-1-1-|
--1-1-1-1-1-1-1-1-1-1-1-1-1-1-1-1-|----------------------------------|


                                                                      
----------------------------------|----------------------------------|
----------------------------------|----------------------------------|
----------------------------------|----------------------------------|
----------------------------------|----------------------------------|
--1-1/6-6-6-6-6-6/1-1-1-1-6-6-6-6-|----------------------------------|
----------------------------------|--6-6-6-6-6-6-6-6-6-6-6-6-6-6-6-6/|


                                                                            
--------------------------------------------------|------------------------|
--------------------------------------------------|------------------------|
--------------------------------------------------|------------------------|
--------------------------------------------------|--1-1-----6-6-----1-1---|
--------------------------------------------------|--1-1-----6-6-----1-1---|
--13-13-13-13-13-13-13-13-13-13-13-13-13-13-13-13-|--1-1-----6-6-----1-1---|


                                                       
-------------------------||---------------------------|
-------------------------||---------------------------|
-------------------------||*--------------------------|
----6-6---6--6--6--6--6--||*--6--6--6--6--6--6--6--6--|
----6-6---6--6--6--6--6--||---6--6--6--6--6--6--6--6--|
----6-6---6--6--6--6--6--||---6--6--6--6--6--6--6--6--|


                                                                           2x
--------------------------|------------------------|-----------------------||
--------------------------|------------------------|-----------------------||
--------------------------|--3--3----8--8----3--3--|----8--8----3----8----*||
--1--1--1--1--1--1--1--1--|--3--3----8--8----3--3--|----8--8----3----8----*||
--1--1--1--1--1--1--1--1--|--1--1----6--6----1--1--|----6--6----1----6-----||
--1--1--1--1--1--1--1--1--|------------------------|-----------------------||


                                                      
--------------------------|--------------------------|
--------------------------|--------------------------|
--------------------------|--------------------------|
--6--6--6--6--6--6--6--6--|--1--1--1--1--1--1--1--1--|
--6--6--6--6--6--6--6--6--|--1--1--1--1--1--1--1--1--|
--6--6--6--6--6--6--6--6--|--1--1--1--1--1--1--1--1--|


                                                      
--------------------------|--------------------------|
--------------------------|--------------------------|
--------------------------|--------------------------|
--------------------------|--------------------------|
--------------------1/-6--|--6--------1--------------|
--8/-7--7--2--2/-1--------|-----0--0-----2--1--1/-6--|


                                                          
|---------------------------|---------------------------||
|---------------------------|---------------------------||
|*--------------------------|--------------------------*||
|*--------------------------|--------------------------*||
|------------1--1-----1/-6--|--6--------1---------------||
|---6--0--0--------0--------|-----0--0-----2--1--1/-6---||


                                                          
--------------------------|------------------------------|
--------------------------|------------------------------|
--------------------------|--8--8--8--8--8-8-8-8-8-8-8-8-|
--------------------------|--8--8--8--8--8-8-8-8-8-8-8-8-|
-----------1--1-----1/-6--|--6--6--6--6--6-6-6-6-6-6-6-6-|
--6--0--0--------0--------|------------------------------|


                                                        3x                     
|---------------------------|---------------------------||--------------------|
|---------------------------|---------------------------||--------------------|
|*--------------------------|--------------------------*||--------------------|
|*--------------------------|--------------------------*||--------------------|
|------------1--1-----1/-6--|--6--------1---------------||--0--0--------------|
|---6--0--0--------0--------|-----0--0-----2--1--1/-6---||--0--0--------------|


                                                             
------------------|------------------|----------------------|
------------------|------------------|----------------------|
------------------|------------------|----------------------|
------------------|------------------|----------------------|
------------------|------------------|----------1--1--6--6--|
------------------|------------------|----------1--1--6--6--|


                                                             
|---------------------|------------------|------------------|
|---------------------|------------------|------------------|
|*--------------------|------------------|------------------|
|*--------------------|------------------|------------------|
|---0--0--------------|------------------|------------------|
|---0--0--------------|------------------|------------------|


                                                                 
-----------------------||--------------------|------------------|
-----------------------||--------------------|------------------|
----------------------*||--------------------|------------------|
----------------------*||--------------------|------------------|
----------1--1--6--6---||--0--0--------------|------------------|
----------1--1--6--6---||--0--0--------------|------------------|


                                        
------------------|-------------------||
------------------|-------------------||
------------------|-------------------||
------------------|-------------------||
------------------|--0----------------||
------------------|--0----------------||


Comments