Slipknot - Interloper Chords & Tabs

 

Interloper Chords & Tabs

Slipknot Chords & Tabs

Version: 2 Type: Tab 0 ratings
1 star 2 stars 3 stars 4 stars 5 stars
comments

Interloper Tab

   
#----------------------------------PLEASE NOTE---------------------------------#
#This file is the author's own work and represents their interpretation of the #
#song. You may only use this file for private study, scholarship, or research. #
#------------------------------------------------------------------------------##

                                   INTERLOPER
                         This Score Tabbed By: Bill Dunn

Tuning: (7 string from low to high) AEADGBE

About this song:  Wow, this was much easier to do then "Gently".  This song is
tuned hella low, if you couldn't already tell by listening to it.  It is played
with a 7-string guitar tuned to a drop A to make all the low hammer-ons easier
to play (according to my theories).  This song, if your good with the tremolo, 
shouldn't be too hard to play.  The verses and chorus consist of the same note
being messed around with, in a sense, and the other parts consist of bar chords
with hammer-ons, so this shouldn't be too difficult.


  H=150
 2/2
  Gtr I

Riff 1: Intro, Played only once.
                                                          ~~
  E Q  E Q  E E   +E  E Q  H    E Q  E Q  E E   +E  E Q   H
|---------------|-------------|---------------|----------------|
|---------------|-------------|---------------|----------------|
|---------------|-------------|---------------|----------------|
|---------------|-------------|---------------|----------------|
|---------------|-------------|---------------|----------------|
|---------------|-------------|---------------|----------------|
|-2h3--2h3--2h3-|-(3)-2h3-----|-2h3--2h3--2h3-|-(3)-2h3--10----|


  E Q  E Q  E E   +E  E Q  H      E Q  E Q  E E   +E  E Q Q  Q
|---------------|---------------|---------------|----------------|
|---------------|---------------|---------------|----------------|
|---------------|---------------|---------------|----------------|
|---------------|---------------|---------------|----------------|
|---------------|---------------|---------------|---------2--2---|
|---------------|---------------|---------------|---------2--2---|
|-2h3--2h3--2h3-|-(3)-2h3-------|-2h3--2h3--2h3-|-(3)-2h3-2--2---|



Riff 2: Main part played before verses, after intro, and in the end.
Same as intro, only chords instead of notes, and the last measure
of the intro are different.

                                                              ~~
    E Q  E Q  E E   +E  E Q  H      E Q  E Q  E E   +E  E Q   H    4x
||----------------|---------------|---------------|----------------||
||----------------|---------------|---------------|----------------||
||o---------------|---------------|---------------|---------------o||
||----------------|---------------|---------------|----------------||
||o-2h3--2h3--2h3-|-(3)-2h3-------|-2h3--2h3--2h3-|-(3)-2h3--10---o||
||--2h3--2h3--2h3-|-(3)-2h3-------|-2h3--2h3--2h3-|-(3)-2h3--10----||
||--2h3--2h3--2h3-|-(3)-2h3-------|-2h3--2h3--2h3-|-(3)-2h3--10----||



[ Tab from: http://www.guitartabs.cc/tabs/s/slipknot/interloper_tab_ver_2.html ]
Riff 3:  First Verse and Chorus riff, Same note through the whole thing,
but first a vibrato then a tremolo dip.  Use that pattern however many 
times you need to before the first verse and first chorus are over.

                   \1                         \1
     ~~~                        ~~~
     H.      Q     W            H.      Q     W
||--12----------|-12---------|-12----------|-12------||
||--------------|------------|-------------|---------||
||o-------------|------------|-------------|--------o||
||--------------|------------|-------------|---------||
||o-------------|------------|-------------|--------o||
||--------------|------------|-------------|---------||
||--------------|------------|-------------|---------||




Riff 4: Second Verse riff, still the same note, just with different
variations on it.  It's a long note held out until a upward bend, then
a release.  Repeat until 2nd verse is finished.

                                              /       |
     W           +W            +W            +H      +H
||--12--------|-(12)--------|-(12)--------|-(12)----(12)----||
||------------|-------------|-------------|-----------------||
||o-----------|-------------|-------------|----------------o||
||------------|-------------|-------------|-----------------||
||o-----------|-------------|-------------|----------------o||
||------------|-------------|-------------|-----------------||
||------------|-------------|-------------|-----------------||


Riff 5: The pre-"as soon as that camera is off, he gonna f*ck that little
doggy" riff, the name pretty much says it all.  It's played before the
sound clip, which is one hell of a comic relief.

    H.      Q    +Q   Q  E Q.     H.      Q    +Q   Q  E Q.
||-------------|----------------|------------|----------------||
||-------------|----------------|------------|----------------||
||o------------|----------------|------------|---------------o||
||-------------|----------------|------------|----------------||
||o-4-------3--|-(3)--4--3h4----|-4-------3--|-(3)--4--3h4---o||
||--4-------3--|-(3)--4--3h4----|-4-------3--|-(3)--4--3h4----||
||--4-------3--|-(3)--4--3h4----|-4-------3--|-(3)--4--3h4----||




Riff 6: The Post "as soon as that camera is off, he gonna f*ck that little
doggy" riff.  This is played the last time around for the chorus, and through
the end verse.

    E Q  E Q  E E   +E  E Q  H      E Q  E Q  E E   +E  E Q  H
||----------------|---------------|---------------|---------------||
||----------------|---------------|---------------|---------------||
||o---------------|---------------|---------------|--------------o||
||----------------|---------------|---------------|---------------||
||o-3h4--4p3--3h4-|-(4)-3h4--3----|-3h4--4p3--3h4-|-(4)-3h4--3---o||
||--3h4--4p3--3h4-|-(4)-3h4--3----|-3h4--4p3--3h4-|-(4)-3h4--3----||
||--3h4--4p3--3h4-|-(4)-3h4--3----|-3h4--4p3--3h4-|-(4)-3h4--3----||

Finally, between a few parts there are some harmonics played which are pretty
easy muted notes.  Not to hard to play.  And that's all.  I hope this helps you

-Bill
BTDJR444@hotmail.com




***************************************************************************************
* Generated using Power Tab Editor by Brad Larsen - http://powertab.guitarnetwork.org *
***************************************************************************************
Comments