Slipknot - I Am Hated Chords & Tabs

 

I Am Hated Chords & Tabs

Slipknot Chords & Tabs

Version: 2 Type: Tab 0 ratings
1 star 2 stars 3 stars 4 stars 5 stars
comments

I Am Hated Tab

   
I Am Hated-Slipknot
Iowa

Drop B:
B F# B E G# C#

pm
e-----------------------------------------------------------------
b-----------------------------------------------------------------
g-----------------------------------------------------------------
d-----------------------------------------------------------------
a-4-2--0--5--6--4-2--0--5--6--4-2--0--5--6------------------------
d-4-2--0--5--6--4-2--0--5--6--4-2--0--5--6------------------------

Verse:
gtr 1. Riff A

e-----------------------------------------------------------------
b-----------------------------------------------------------------
g--------------------8-8-------------------------8-8--------------
d-------------------------7---------------------------7-----------
a-5------5-5-6-6-5-5---------6--5----5-5-6-6-5-5---------6--------
d----0-0---------------------------0------------------------------

gtr 2.

e-----------------------------------------------------------------
b-----------------------------------------------------------------
g-----------------------------------------------------------------
d-----------------------------------------------------------------
a---4------------4------------4-----------------------------------
d-0---0--5--6--0---0--5--6--0---0--5--6--3-0-5-6------------------

gtr 2.

e-----------------------------------------------------------------
b-----------------------------------------------------------------
g-----------------------------------------------------------------
d-----------------------------------------------------------------
a---4------------4------------4-----------------------------------
d-0---0--5--6--0---0--5--6--0---0--5--6--3-0-7-6------------------

Pre-Chorus:
[ Tab from: http://www.guitartabs.cc/tabs/s/slipknot/i_am_hated_tab_ver_2.html ]
gtr 1. Riff B
e-----------------------------------------------------------------
b-----------------------------------------------------------------
g----------------8-8--8-4--4---4-----------------8-8--8-4--4---4--
d----------------x-x--x-x--x---x-----------------x-x--x-x--x---x--
a-5----------5-5-6-6--6-2--2---2--5----------5-5-6-6--6-2--2---2--
d----4-4-6-6-------------------------4-4-6-6----------------------

gtr 2. Riff B1

e-----------------------------------------------------------------
b-----------------------------------------------------------------
g----------------8-8--8-13-13--13-----------------8-8--8-13-13--13
d----------------x-x--x-x--x---x------------------x-x--x-x--x---x-
a-5----------6-6-6-6--6-11-11--11--5----------6-6-6-6--6-11-11--11
d----4-4-6-6--------------------------4-4-6-6---------------------

Chorus:
Fig 1.

e-----------------------------------------------------------------
b-----------------------------------------------------------------
g-----------------------------------------------------------------
d-----------------------------------------------------------------
a-0---6--1--0--0-0-6--1--0---6--1--0--0-0-6--1--------------------
d-0---6--1--0--0-0-6--1--0---6--1--0--0-0-6--1--------------------

Bridge:

e-----------------------------------------------------------------
b-----------------------------------------------------------------
g-------------------------5-5-------------------------5-5---------
d-------------------------5-5-------------------------5-5---------
a---------------------3-0-3-3-3-0-----------------3-0-3-3---------
d-3-0-----3-6~~~~~-0--3-0-----3-0-----3-6~~~~~-0--3-0-------------

Fig 3.

e-----------------------------------------------------------------
b-----------------------------------------------------------------
g-----------------------------------------------------------------
d-----------------------------------------------------------------
a-4-2-0--5--6--4-2-0--5--6--4-2-0--5--6--4-2-0--5--6--------------
d-4-2-0--5--6--4-2-0--5--6--4-2-0--5--6--4-2-0--5--6--------------

Thatís all
trevor jones
timmy91199@yahoo.ca
Comments