Slipknot - Heretic Anthem Chords & Tabs

 

Heretic Anthem Chords & Tabs

Slipknot Chords & Tabs

Version: 6 Type: Tab 0 ratings
1 star 2 stars 3 stars 4 stars 5 stars
comments

Heretic Anthem Tab

   
Band: Slipknot
Song: The Heretic Anthem
Tuning: Drop A (A,E,A,D,F#,B)
Tabbed by: gary666    (www.freewebs.com/gaznmat)
Key: PM = Palm Mute (Dash underneath muted chord)
      * = Harmonics
      p = Pull off
      h = Hammer on
      / = Slide
      t = Tremolo abbreviation

1st Guitar
B |-----------------|
F#|-----------------|
D |-----------------|
A |-----------------|
E |-----------------|
A |-------------12/0|


1st Guitar                                                               _
B |-----------------|----------------|----------------|----------------|  \
F#|-----------------|----------------|----------------|----------------|  |
D |-----------------|----------------|----------------|----------------|  |
A |-0-0-0-1-0-0-0-1-|0-0-0-1-0-0-0-1-|0-0-0-1-0-0-0-1-|0-0-0-1-0-0-0-1-|  |
E |-0-0-0-1-0-0-0-1-|0-0-0-1-0-0-0-1-|0-0-0-1-0-0-0-1-|0-0-0-1-0-0-0-1-|  |
A |-0-0-0-1-0-0-0-1-|0-0-0-1-0-0-0-1-|0-0-0-1-0-0-0-1-|0-0-0-1-0-0-0-1-|  |
PM  - - -   - - -    - - -   - - -    - - -   - - -    - - -   - - -       \ \ / |
                                                                            > X  |
2nd Guitar                                                                 / / \ |
B |-----------------|----------------|----------------|----------------|  |
F#|-----------------|----------------|----------------|----------------|  |
D |-----------------|----------------|----------------|----------------|  |
A |-----------------|----------------|0-0-0-1-0-0-0-1-|0-0-0-1-0-0-0-1-|  |
E |-----------------|----------------|0-0-0-1-0-0-0-1-|0-0-0-1-0-0-0-1-|  |
A |-----------------|------------12/0|0-0-0-1-0-0-0-1-|0-0-0-1-0-0-0-1-| _/
PM                                    - - -   - - -    - - -   - - -


Both Guitars
B |-----------------|----------------|-----------------|----------------|
F#|-----------------|----------------|-----------------|----------------|
D |-----------------|----------------|-----------------|----------------|
A |-0-0-0-1-0-0-0-1-|0-0-0-1-0-0-0-1-|-0-0-0-1-0-0-0-1-|0-0-0-1-0-0-0-1-|
E |-0-0-0-1-0-0-0-1-|0-0-0-1-0-0-0-1-|-0-0-0-1-0-0-0-1-|0-0-0-1-0-0-0-1-|
A |-0-0-0-1-0-0-0-1-|0-0-0-1-0-0-0-1-|-0-0-0-1-0-0-0-1-|0-0-0-1-0-0-0-1-|
PM  - - -   - - -    - - -   - - -     - - -   - - -    - - -   - - -


Both Guitars (2/2 Bar)
    1   &   2   &
B |-----------------|
F#|-----------------|
D |-----------------|
A |-----------------|
E |-----2.1*2.1*2.3*|
A |-----------------|


Both Guitars
B |-----------------|----------------|-----------------|----------------|
F#|-----------------|----------------|-----------------|----------------|
D |-----------------|----------------|-----------------|----------------|
A |-0-0-0-1-0-0-0-1-|0-0-0-1-0-0-0-1-|-0-0-0-1-0-0-0-1-|0-0-0-1-0-0-0-1-|
E |-0-0-0-1-0-0-0-1-|0-0-0-1-0-0-0-1-|-0-0-0-1-0-0-0-1-|0-0-0-1-0-0-0-1-|
A |-0-0-0-1-0-0-0-1-|0-0-0-1-0-0-0-1-|-0-0-0-1-0-0-0-1-|0-0-0-1-0-0-0-1-|
PM  - - -   - - -    - - -   - - -     - - -   - - -    - - -   - - -


1st Guitar (On its own)
B |-----------------|----------------|
F#|-----------------|----------------|
D |-----------6-5---|----3-2-2-------|
A |-0-0-3-2-0-6-5-4-|3-0-3-2-2-0-1-0-|
E |-0-0-3-2-0-4-3-4-|3-0-1-0-0-0-1-0-|
A |-0-0-3-2-0-----4-|3-0-------0-1-0-|
PM  - -     -


Both Guitars
B |-----------------|----------------|       __
F#|-----------------|----------------| \  / /  \
D |-----------6-5---|----3-2-2-------|  \/  \__/
A |-0-0-3-2-0-6-5-4-|3-0-3-2-2-0-1-0-|  /\  /  \
E |-0-0-3-2-0-4-3-4-|3-0-1-0-0-0-1-0-| /  \ \__/
A |-0-0-3-2-0-----4-|3-0-------0-1-0-|
PM  - -     -


Both Guitars
B |-----------------|----------------|----------------|----------------|
F#|-----------------|----------------|----------------|----------------| \  / |
D |-----------------|----------------|----------------|----------------|  \/  | |
A |-2---3/4/5-4---5/|6---5-6-6-7---7-|2---3/4/5-4---5/|6---5-6-6-7---7-|  /\  |_|_
E |-2---3/4/5-4---5/|6---5-6-6-7---7-|2---3/4/5-4---5/|6---5-6-6-7---7-| /  \   |
A |-2---3/4/5-4---5/|6---5-6-6-7---7-|2---3/4/5-4---5/|6---5-6-6-7---7-|
PM  -


1st Guitar (On its own)
B |-----------------|----------------|
F#|-----------------|----------------|
D |-----------6-5---|----3-2-2-------|
A |-0-0-3p2-0-6-5-4-|3-0-3-2-2-0-1-0-|
E |-0-0-3p2-0-4-3-4-|3-0-1-0-0-0-1-0-|
A |-0-0-3p2-0-----4-|3-0-------0-1-0-|
PM  - -     -


Both Guitars
B |-----------------|----------------|-----------------|----------------|
F#|-----------------|----------------|-----------------|----------------| \  / |
D |-----------------|----------------|-----------------|----------------|  \/  | |
A |-0-0-0-1-0-0-0-1-|0-0-1-2-3-2-4-5-|-0-0-0-1-0-0-0-1-|0-0-2-3-4-3-4-5-|  /\  |_|_
E |-0-0-0-1-0-0-0-1-|0-0-1-2-3-2-4-5-|-0-0-0-1-0-0-0-1-|0-0-2-3-4-3-4-5-| /  \   |
A |-0-0-0-1-0-0-0-1-|0-0-1-2-3-2-4-5-|-0-0-0-1-0-0-0-1-|0-0-2-3-4-3-4-5-|
PM  - - -   - - -    - -               - - -   - - -    - -


Both Guitars
B |-----------------|----------------|----------------|----------------|
F#|-----------------|----------------|----------------|----------------| \  / |
D |-----------------|----------------|----------------|----------------|  \/  | |
A |-2---3/4/5-4---5/|6---5-6-6-7---7-|2---3/4/5-4---5/|6---5-6-6-7---7-|  /\  |_|_
E |-2---3/4/5-4---5/|6---5-6-6-7---7-|2---3/4/5-4---5/|6---5-6-6-7---7-| /  \   |
A |-2---3/4/5-4---5/|6---5-6-6-7---7-|2---3/4/5-4---5/|6---5-6-6-7---7-|
PM  -


Drum solo (Both Guitars)
B |-----------------|----------------|--------------------|
F#|-----------------|----------------|--------------------|
D |-----------------|----------------|--------------------|
A |-----------------|----------------|------------------3-|
E |-----------------|----------------|------------------3-|
A |-----------------|----------------|------------------3-|
    1 & 2 & 3 & 4 &  1 & 2 & 3 & 4 &  1 & 2 & 3 & 4 & 5 &


1st Guitar                                                               _
B |-----------------|----------------|----------------|----------------|  \
F#|-----------------|----------------|----------------|----------------|  |
D |-----------------|----------------|----------------|----------------|  |
A |-0-1-0-3---------|----------------|----------------|----------------|  |
E |-0-1-0-3---------|----------------|----------------|----------------|  |
A |-0-1-0-3---------|----------------|----------------|----------------|  | \  /  |
                                                                           \ \/   |
2nd Guitar                                                                 / /\   |
B |-----------------|----------------|----------------|----------------|  | /  \  |
F#|-----------------|----------------|----------------|----------------|  |
D |-----------------|----------------|----------------|----------------|  |
A |-0-1-0-3-0-0-0-0-|0-1-2-3-0-1-0-3-|0-1-2-3-0-0-0-0-|0-6-5-0-4-3-0-3-|  |
E |-0-1-0-3-0-0-0-0-|0-1-2-3-0-1-0-3-|0-1-2-3-0-0-0-0-|0-6-5-0-4-3-0-3-|  |
A |-0-1-0-3-0-0-0-0-|0-1-2-3-0-1-0-3-|0-1-2-3-0-0-0-0-|0-6-5-0-4-3-0-3-| _/
PM          - - - -  -                        - - - -  -     -     -


Both Guitars
B |-----------------|----------------|----------------|----------------|
F#|-----------------|----------------|----------------|----------------|
D |-----------------|----------------|----------------|----------------|
A |-0-1-0-3-0-0-0-0-|0-1-2-3-0-1-0-3-|0-1-2-3-0-0-0-0-|0-6-5-0-4-3-----|
E |-0-1-0-3-0-0-0-0-|0-1-2-3-0-1-0-3-|0-1-2-3-0-0-0-0-|0-6-5-0-4-3-----|
A |-0-1-0-3-0-0-0-0-|0-1-2-3-0-1-0-3-|0-1-2-3-0-0-0-0-|0-6-5-0-4-3-----|
PM          - - - -  -                        - - - -  -     -

[ Tab from: http://www.guitartabs.cc/tabs/s/slipknot/heretic_anthem_tab_ver_6.html ]
Both Guitars (Leave out harmonic at end of 2nd time)                     _
B |-----------------|----------------|----------------|----------------|  \
F#|-----------------|----------------|----------------|----------------|  |
D |-----------------|----------------|----------------|----------------|  |
A |-0-1-0-3-0-0-0-0-|0-1-2-3-0-1-0-3-|0-1-2-3-0-0-0-0-|0-6-5-0-4-3-0-3-|  |
E |-0-1-0-3-0-0-0-0-|0-1-2-3-0-1-0-3-|0-1-2-3-0-0-0-0-|0-6-5-0-4-3-0-3-|  |       ___
A |-0-1-0-3-0-0-0-0-|0-1-2-3-0-1-0-3-|0-1-2-3-0-0-0-0-|0-6-5-0-4-3-0-3-|  | \  / /   \
PM          - - - -  -                        - - - -  -     -     -       \ \/      /
                                                                           / /\    /
B |-----------------|----------------|----------------|----------------|  | /  \ /____
F#|-----------------|----------------|----------------|----------------|  |
D |-----------------|----------------|----------------|----------------|  |
A |-0-1-0-3-0-0-0-0-|0-1-2-3-0-1-0-3-|0-1-2-3-0-0-0-0-|0-6-5-0-4-3-----|  |
E |-0-1-0-3-0-0-0-0-|0-1-2-3-0-1-0-3-|0-1-2-3-0-0-0-0-|0-6-5-0-4-3-2.1*|  |
A |-0-1-0-3-0-0-0-0-|0-1-2-3-0-1-0-3-|0-1-2-3-0-0-0-0-|0-6-5-0-4-3-----| _/
PM          - - - -  -                        - - - -  -     -


Both Guitars
B |-----------------|----------------|----------------|----------------|
F#|-----------------|----------------|----------------|----------------|
D |-----------------|----------------|----------------|----------------|
A |-0-1-0-3---------|--1-2-3-0-1-0-3-|0-1-2-3---------|------1-5-1-----|
E |-0-1-0-3---------|--1-2-3-0-1-0-3-|0-1-2-3---------|------1-5-1-----|
A |-0-1-0-3---------|--1-2-3-0-1-0-3-|0-1-2-3---------|------1-5-1-----|


Both Guitars
B |-----------------|----------------|----------------|----------------|
F#|-----------------|----------------|----------------|----------------|
D |-----------------|----------------|----------------|----------------|
A |-0-1-0-3---------|--1-2-3-0-1-0-3-|0-1-2-3---------|----------0-0-0-|
E |-0-1-0-3---------|--1-2-3-0-1-0-3-|0-1-2-3---------|----------0-0-0-|
A |-0-1-0-3---------|--1-2-3-0-1-0-3-|0-1-2-3---------|----------0-0-0-|


1st Guitar                                                               _
B |-----------------|----------------|----------------|----------------|  \
F#|-----------------|----------------|----------------|----------------|  |
D |-----------------|----------------|----------------|----------------|  |
A |-0-1-0-3---------|--1-2-3-0-1-0-3-|0-1-2-3---------|------1-5-1-----|  |
E |-0-1-0-3---------|--1-2-3-0-1-0-3-|0-1-2-3---------|------1-5-1-----|  |
A |-0-1-0-3---------|--1-2-3-0-1-0-3-|0-1-2-3---------|------1-5-1-----|  | \  /  |
                                                                           \ \/   |
2nd Guitar                                                                 / /\   |
B |-----------------|----------------|----------------|----------------|  | /  \  |
F#|-----------------|----------------|----------------|----------------|  |
D |-----------------|----------------|----------------|----------------|  |
A |-----------------|----------------|----------------|----------------|  |
E |-----------------|----------------|----------------|----------------|  |
A |-0-0-0-0-0-0-0-0-|0-0-0-0-0-0-0-0-|0-0-0-0-0-0-0-0-|0-0-0-0-0-0-0-0-| _/
PM  - - - - - - - -  - - - - - - - -  - - - - - - - -  - - - - - - - -


1st Guitar                                                               _
B |-----------------|----------------|----------------|----------------|  \
F#|-----------------|----------------|----------------|----------------|  |
D |-----------------|----------------|----------------|----------0-----|  |
A |-0-1-0-3---------|--1-2-3-0-1-0-3-|0-1-2-3---------|------------0---|  |
E |-0-1-0-3---------|--1-2-3-0-1-0-3-|0-1-2-3---------|--------------0-|  |
A |-0-1-0-3---------|--1-2-3-0-1-0-3-|0-1-2-3---------|----------------|  | \  /  |
                                                                           \ \/   |
2nd Guitar                                                                 / /\   |
B |-----------------|----------------|----------------|----------------|  | /  \  |
F#|-----------------|----------------|----------------|----------------|  |
D |-----------------|----------------|----------------|----------0-----|  |
A |-----------------|----------------|----------------|------------0---|  |
E |-----------------|----------------|----------------|--------------0-|  |
A |-0-0-0-0-0-0-0-0-|0-0-0-0-0-0-0-0-|0-0-0-0-0-0-0-0-|0-0-0-0-0-------| _/
PM  - - - - - - - -  - - - - - - - -  - - - - - - - -  - - - - -


1st Guitar (Tremolo)
B |-----------------|----------------|----------------|----------------|
F#|-----------------|----------------|----------------|----------------| \  / |
D |-----------------|----------------|----------------|----------------|  \/  |
A |-2-2-2-2-5-5-5-5-|4-4-4-4-5-5-5-5-|6-6-6-6-5-5-6-6-|6-6-7-7-7-7-7-7-|  /\  |_|_
E |-----------------|----------------|----------------|----------------| /  \   |
A |-----------------|----------------|----------------|----------------|


1st Guitar (Tremolo) (2nd Guitar plays weird/random solo)
B |-----------------|----------------|----------------|----------------|
F#|-5-5-5-5-8-8-8-8-|7-7-7-7-8-8-8-8-|9-9-9-9-8-8-9-9-|9-9-101010101010| \  / |
D |-----------------|----------------|----------------|----------------|  \/  |
A |-----------------|----------------|----------------|----------------|  /\  |_|_
E |-----------------|----------------|----------------|----------------| /  \   |
A |-----------------|----------------|----------------|----------------|


Both Guitars
B |-----------------|----------------|----------------|----------------|       ___
F#|-----------------|----------------|----------------|----------------| \  / /   \
D |-----------------|----------------|----------------|----------------|  \/      /
A |-2---3/4/5-4---5/|6---5-6-6-7---7-|2---3/4/5-4---5/|6---5-6-6-7---7-|  /\    /
E |-2---3/4/5-4---5/|6---5-6-6-7---7-|2---3/4/5-4---5/|6---5-6-6-7---7-| /  \ /____
A |-2---3/4/5-4---5/|6---5-6-6-7---7-|2---3/4/5-4---5/|6---5-6-6-7---7-|


1st Guitar (Tremolo)                                                     _
B |-----------------|----------------|----------------|----------------|  \
F#|-5ttt8ttt7ttt8ttt|9ttt8t9ttt10tttt|5ttt8ttt7ttt8ttt|9ttt8t9ttt10tttt|  |
D |-----------------|----------------|----------------|----------------|  |
A |-----------------|----------------|----------------|----------------|  |
E |-----------------|----------------|----------------|----------------|  |       ___
A |-----------------|----------------|----------------|----------------|  | \  / /   \
                                                                           \ \/      /
2nd Guitar                                                                 / /\    /
B |-----------------|----------------|----------------|----------------|  | /  \ /____
F#|-----------------|----------------|----------------|----------------|  |
D |-----------------|----------------|----------------|----------------|  |
A |-2---3/4/5-4---5/|6---5-6-6-7---7-|2---3/4/5-4---5/|6---5-6-6-7---7-|  |
E |-2---3/4/5-4---5/|6---5-6-6-7---7-|2---3/4/5-4---5/|6---5-6-6-7---7-|  |
A |-2---3/4/5-4---5/|6---5-6-6-7---7-|2---3/4/5-4---5/|6---5-6-6-7---7-| _/



Both Guitars
B |-----------------|----------------|----------------|----------------|       __
F#|-----------------|----------------|----------------|----------------| \  / /  \
D |-----------------|----------------|----------------|----------------|  \/    _/
A |-0-1-0-3-0-0-0-0-|0-1-2-3-0-1-0-3-|0-1-2-3-0-0-0-0-|0-6-5-0-4-3-0-3-|  /\     \
E |-0-1-0-3-0-0-0-0-|0-1-2-3-0-1-0-3-|0-1-2-3-0-0-0-0-|0-6-5-0-4-3-0-3-| /  \ \__/
A |-0-1-0-3-0-0-0-0-|0-1-2-3-0-1-0-3-|0-1-2-3-0-0-0-0-|0-6-5-0-4-3-0-3-|
PM          - - - -  -                        - - - -  -     -     -


Both Guitars
B |-----------------|----------------|----------------|----------------|
F#|-----------------|----------------|----------------|----------------|
D |-----------------|----------------|----------------|----------------|
A |-0-1-0-3-0-0-0-0-|0-1-2-3-0-1-0-3-|0-1-2-3-0-0-0-0-|0-6-5-0-4-------|
E |-0-1-0-3-0-0-0-0-|0-1-2-3-0-1-0-3-|0-1-2-3-0-0-0-0-|0-6-5-0-4-------|
A |-0-1-0-3-0-0-0-0-|0-1-2-3-0-1-0-3-|0-1-2-3-0-0-0-0-|0-6-5-0-4-------|
PM          - - - -  -                        - - - -  -     -
Comments