Slipknot - Heretic Anthem Chords & Tabs

 

Heretic Anthem Chords & Tabs

Slipknot Chords & Tabs

Version: 5 Type: Tab 0 ratings
1 star 2 stars 3 stars 4 stars 5 stars
comments

Heretic Anthem Tab

   
Drop A(AEADF#B)

Key:sl:slide
        /:slide up
        \:slide down
        t:tremolo picking

Intro Riff
|----------------------------------------------------------|
|----------------------------------------------------------|
|----------------------------------------------------------|
|----------------------------------------------------------|
|----------------------------------------------------------|
|----0--0--0--1--0--0--0-1--0--0--0--1--0--0--0--1---------|

1st Verse Riff        sl
|----------------------------------------------------------|
|----------------------------------------------------------|
|----------------------------------------------------------|
|-------------------6--5-----------------------------------|
|-0--0--3------2-0--4--3--4--3--0--0--8--0--1--1-----------|
|-0--0--3slide-2-0--------4--3--0--0--8--0--1--1-----------|

Chorus Riff
|----------------------------------------------------------|
|----------------------------------------------------------|
|----------------------------------------------------------|
|----------------------------------------------------------|
|--2----5--5--4-5-6--5-6-7--8------------------------------|
|--2----5--5--4-5-6--5-6-7--8------------------------------|

2nd Verse Riff
|----------------------------------------------------------|
|----------------------------------------------------------|
|----------------------------------------------------------|
|----------------------------------------------------------|
|----------------------1/3\2/5-----------------------------|
|--0-0-0-1-0-0-0-1-0-0-1/3\2/5-----------------------------|
[ Tab from: http://www.guitartabs.cc/tabs/s/slipknot/heretic_anthem_tab_ver_5.html ]
Interlude/Outro Riff(lots of variations over the song 
like palm mutes and open string but this is the core
|----------------------------------------------------------|
|----------------------------------------------------------|
|----------------------------------------------------------|
|----------------------------------------------------------|
|-----1-----3--------------1-2-3-----1-----8---------------|
|--0--1--0--3--0-0-0-0-0-0-1-2-3--0--1--0--8---------------|

Interlude/Outro(cont.)
|----------------------------------------------------------|
|----------------------------------------------------------|
|----------------------------------------------------------|
|----------------------------------------------------------|
|-----1-----3--------------6/5-----5--3-----3--------------|
|--0--1--0--3--0-0-0-0-0-0-6/5--0--5--3--0--3--------------|

Breakdown Chorus Riff A
|----------------------------------------------------------|
|----------------------------------------------------------|
|----------------------------------------------------------|
|----------------------------------------------------------|
|-7t---10t--9t--10t--11t--10t--11t--12t-13t----------------|
|----------------------------------------------------------|

Riff B
|----------------------------------------------------------|
|--5t----8t--7t-8t-9t--8t-9t-10t--11t----------------------|
|----------------------------------------------------------|
|----------------------------------------------------------|
|----------------------------------------------------------|
|----------------------------------------------------------|

Song Order:
Intro x 6 1/2
1st Verse x 9
Chorus x 8
1st Verse x 1
2nd Verse x 8
Chorus x 8
Drum Interlude
Interlude x a lot of times
Breakdown Chorus A x 4
Breakdown Chorus B x 4
Chorus x 8
Outro x 4 

Questions, comments? e-mail:  the_fox56@hotmail.com
Comments