Slipknot - Heretic Anthem Chords & Tabs

 

Heretic Anthem Chords & Tabs

Slipknot Chords & Tabs

Version: 4 Type: Tab 0 ratings
1 star 2 stars 3 stars 4 stars 5 stars
comments

Heretic Anthem Tab

   
The Heretic Anthem-Slipknot
Iowa

Drop A Tuning:

A E A D F# B

8   7   6   6   6   5   4   3  2....drums

e-----------------------------------------------------------------
b-----------------------------------------------------------------
g-----------------------------------------------------------------
d-----------------------------------------------------------------
a-----------------------------------------------------------------
d--------------------------------------------------------22\-0----

Fig 1. x3

e-----------------------------------------------------------------
b-----------------------------------------------------------------
g-----------------------------------------------------------------
d-----------------------------------------------------------------
a-------1-------1-------1-------1-------1-------1-------1-------1-
D-0-0-0-1-0-0-0-1-0-0-0-1-0-0-0-1-0-0-0-1-0-0-0-1-0-0-0-1-0-0-0-1-

...yeah!...

e-(4)-------------------------------------------------------------
b----(3)----------------------------------------------------------
g-----------------------------------------------------------------
d-----------------------------------------------------------------
a---------------1-------1-------1-------1-------1-------1-------1-
d---------0-0-0-1-0-0-0-1-0-0-0-1-0-0-0-1-0-0-0-1-0-0-0-1-0-0-0-1-

e-----------------------------------------------------------------
b-----------------------------------------------------------------
g---------------------------------------3-------------------------
d---------------------------6\5---------3-------------------------
a-------1-----x-------3\2---4\3-4\3-0---1---1-1-------------------
d-0-0-0-1-0-0-x---0-0-3\2-0-----4\3-0-0---0-1-1-------------------

Verse 1 Fig 2. ...pop star threat and iím not dead yet....

e-----------------------------------------------------------------
b-----------------------------------------------------------------
g-----------------------3-----------------------------------------
d-----------6\5---------3-------------------6\5---------3---------
a-----3\2---4\3-4\3-0---1---1--1------3\2---4\3-4\3-0---1---1--1--
d-0-0-3\2-0-----4\3-0-0---0-1--1--0-0-3\2-0-----4\3-0-0---0-1--1--

Chorus: Fig 3.
[ Tab from: http://www.guitartabs.cc/tabs/s/slipknot/heretic_anthem_tab_ver_4.html ]
e-----------------------------------------------------------------
b-----------------------------------------------------------------
g-----------------------------------------------------------------
d-----------------------------------------------------------------
a-2--2-5---4---5-6--5-6---7---9-2--2-5---4---5-6--5-6---7---9-----
d-2--2-5---4---5-6--5-6---7---9-2--2-5---4---5-6--5-6---7---9-----

Fig 4.
Verse 2
...evíry bodyís so infatuated....

e-----------------------------------------------------------------
b-----------------------------------------------------------------
g-----------------------------------------------------------------
d-----------------------------------------------------------------
a-------1-------1-----2/3-3\2-2/5-------1-------1-----2/3-3\2-2/5-
d-0-0-0-1-0-0-0-1-0-0-2/3-3\2-2/5-0-0-0-1-0-0-0-1-0-0-2/3-3\2-2/5-

Interlude:

Fig 5.

e-----------------------------------------------------------------
b-----------------------------------------------------------------
g-------------------------------3---------------------------------
d-------------------------------x---------------------------------
a-0-1-0-3-----------1-2-3---1---1---1-2-3-----------6\5---5-3---3-
d-0-1-0-3-0-0-0-0-0-1-2-3-0-1-0---0-1-2-3-0-0-0-0-0-6\5-0-5-3-0-3-

e-----------------------------------------------------------------
b-----------------------------------------------------------------
g-------------------------------3---------------------------------
d-------------------------------x---------------------------------
a-0-1-0-3-----------1-2-3---1---1---1-2-3-----------6\5---5-3-----
d-0-1-0-3-0-0-0-0-0-1-2-3-0-1-0---0-1-2-3-0-0-0-0-0-6\5-0-5-3-----

Bridge:

Fig 6 ...30 seconds 16 8 4...

e-----------------------------------------------------------------
b-----------------------------------------------------------------
g---------------------------3-------------------------------------
d---------------------------x-------------------------------------
a-0-1-0-3---------1-2-3--1--1---1-2-3-----------1--1--------------
d-0-1-0-3---------1-2-3--1------1-2-3-----------1--1--------------

break down chorus

e-----------------------------------------------------------------
b-----------------------------------------------------------------
g-----------------------------------------------------------------
d-2222--22-555555-4444--55-6666--5566---7777---9999---------------
a-----------------------------------------------------------------
d-----------------------------------------------------------------

gtr 2.

e-----------------------------------------------------------------
b-5555--55-888888-7777--88-9999--8899--101010--111111-------------
g-----------------------------------------------------------------
d-----------------------------------------------------------------
a-----------------------------------------------------------------
d-----------------------------------------------------------------

thatís all

trevor jones
timmy91199@yahoo.ca
Comments