Slipknot - Gently Chords & Tabs

 

Gently Chords & Tabs

Slipknot Chords & Tabs

Version: 9 Type: Tab 0 ratings
1 star 2 stars 3 stars 4 stars 5 stars
comments

Gently Tab

   
song: Gently (IOWA Version)
band: Slipknot
tabbed by: funeralforafrie & Adam Kahn


Riff 1:
C#|---------------------------------------------------------------------------|
G#|---------------------------------------------------------------------------|
E |-10-10-10-10-10-10-10-10-10-10-10-10-10/18-18-18-9-9-9-9-9-9-9-9-9-9-9-9-9-|
B |--x--x--x--x--x--x--x--x--x--x--x--x--x/-x--x--x-x-x-x-x-x-x-x-x-x-x-x-x-x-|
F#|--8--8--8--8--8--8--8--8--8--8--8--8--8/16-16-16-7-7-7-7-7-7-7-7-7-7-7-7-7-|
B |---------------------------------------------------------------------------|

C#|-------------------------------------------------|
G#|-------------------------------------------------|
E |-14-14-14-14-10-10-10-10-10-10-10-10-10-10-10-10-|
B |--x--x--x--x--x--x--x--x--x--x--x--x--x--x--x--x-|
F#|-12-12-12-12--8--8--8--8--8--8--8--8--8--8--8--8-|
B |-------------------------------------------------|

C#|-----------------------------------------------|
G#|---------------------------------------9-9-9-9-|
E |-10/18-18-18-9-9-9-9-9-9-9-9-9-9-9-9-9-x-x-x-x-|
B |--x/-x--x--x-x-x-x-x-x-x-x-x-x-x-x-x-x-7-7-7-7-|
F#|--8/16-16-16-7-7-7-7-7-7-7-7-7-7-7-7-7---------|
B |-----------------------------------------------|

Riff 2:
C#|----------------------------------|
G#|----------------------------------|
E |----------------------------------|
B |----------------------------------|
F#|-3-----3/7-7-7-7-2-----3/5-5/8-8~-|
B |-3-----3/7-7-7-7-2-----3/5-5/8-8~-| 
[ Tab from: http://www.guitartabs.cc/tabs/s/slipknot/gently_tab_ver_9.html ]
Riff 3:
C#|-------------------------------------------------|
G#|-------------------------------------------------|
E |-10-10-10-10-10-10-10-10-10-10-10-10-10/18-18-18-|
B |--x--x--x--x--x--x--x--x--x--x--x--x--x/-x--x--x-|
F#|--8--8--8--8--8--8--8--8--8--8--8--8--8/16-16-16-|
B |-------------------------------------------------|

C#|------------------------------------------|
G#|------------------------------------------|
E |-9-9-9-9-9-9-9-9-9-9-9-9-9-14-14-14-14/10-|
B |-x-x-x-x-x-x-x-x-x-x-x-x-x--x--x--x--x/-x-|
F#|-7-7-7-7-7-7-7-7-7-7-7-7-7-12-12-12-12/-8-|
B |------------------------------------------|

C#|-------------------------------------------------------------|
G#|-----------------------------------------------------9-9-9-9-|
E |-10-10-10-10-10-10-10-10-10-10-10-10-10/18-18-18-9~--x-x-x-x-|
B |--x--x--x--x--x--x--x--x--x--x--x--x--x/-x--x--x-x---7-7-7-7-|
F#|--8--8--8--8--8--8--8--8--8--8--8--8--8/16-16-16-7~----------|
B |-------------------------------------------------------------|

Riff 4:
C#|----------|
G#|--14b--r--|
E |--12b--r--|
B |----------|
F#|----------|
B |----------|

Riff 5:
C#|------------------------------|
G#|------------------------------|
E |------------------------------|
B |------------------------------|
F#|-0-3-2-3---2-4-3-1---0-0-0-0--|
B |-0-3-2-3---2-4-3-1---0-0-0-0--|
   |_PM__|   |_PM__|

Riff 6:
C#|---------------------------------------------|
G#|---------------------------------------------|
E |---------------------------------------------|
B |---------------------------------------------|
F#|-0-3-2-3----0-3-2-3----0-3-2-3----0-3-2-3----|
B |-0-3-2-3----0-3-2-3----0-3-2-3----0-3-2-3----|
   |_PM__|    |_PM__|    |_PM__|    |_PM__|
Comments