Slipknot - Gently Chords & Tabs

 

Gently Chords & Tabs

Slipknot Chords & Tabs

Version: 8 Type: Tab 0 ratings
1 star 2 stars 3 stars 4 stars 5 stars
comments

Gently Tab

   
Gently-Slipknot
Iowa

Drop B:
B F# B E G# C#

( ) = harmonics

Prelude: Cymbal bass & drums

Gtr. 2

e-------------------------------------12------------------------------
b-181818181818181818-------------15---15b-15b-15b-15b~~~~15b-15b~~~~--
g--x-x-x-x-x-x-x-x-x--------------------------------------------------
d-151515151515151515--------------------------------------------------
a---------------------------------------------------------------------
d---------------------------------------------------------------------

Gtr. 1 Riff A

e---------------------------------------------------------------------
b---------------------------15-15-15-15-15----------------------------
g10101010101010101010101010--x--x--x--x--x-9-9-9-9-9-9-9-9-9-9-9-9-9--
d-x-x-x-x-x-x-x-x-x-x-x-x-x-12-12-12-12-12-x-x-x-x-x-x-x-x-x-x-x-x-x--
a-8-8-8-8-8-8-8-8-8-8-8-8-8----------------7-7-7-7-7-7-7-7-7-7-7-7-7--
d---------------------------------------------------------------------

Gtr. 2

e-------------------------------------12------------------------------
b-181818181818181818-------------15---15b~~~~~~~~~~~~~~~~~~~-12-------
g--x-x-x-x-x-x-x-x-x------------------------------------------x-------
d-151515151515151515------------------------------------------9-------
a---------------------------------------------------------------------
d---------------------------------------------------------------------

Gtr. 1

e---------------------------------------------------------------------
b---------------------------15-15-15-15-15----------------------------
g10101010101010101010101010--x--x--x--x--x-9-9-9-9-9-9-9-9-9-9-9-9-9--
d-x-x-x-x-x-x-x-x-x-x-x-x-x-12-12-12-12-12-x-x-x-x-x-x-x-x-x-x-x-x-x--
a-8-8-8-8-8-8-8-8-8-8-8-8-8----------------7-7-7-7-7-7-7-7-7-7-7-7-7--
d---------------------------------------------------------------------

play that section above x2, then

Gtr. 2

e----------------------------------------------------------------------
b-20202020202020222218181818181815151717171717171717121212121212128----
g--x-x-x-x-x-x-x-x-x-x-x-x-x-x-x-x-x-x-x-x-x-x-x-x-xxxxxxxxxxxxxxxx----
d-17171717171717191915151515151512121414141414141414999999999999995----
a----------------------------------------------------------------------
d----------------------------------------------------------------------

Gtr. 1 Riff B

e----------------------------------------------------------------------
b---------------------------15-15-15-15--------------------------------
g10101010101010101010101010--x--x--x--x-9-9-9-9-9-9-9-9-9-9-9-12-12-12-
d-x-x-x-x-x-x-x-x-x-x-x-x-x-12-12-12-12-x-x-x-x-x-x-x-x-x-x-x--x--x--x-
a-8-8-8-8-8-8-8-8-8-8-8-8-8-------------7-7-7-7-7-7-7-7-7-7-7-10-10-10-
d----------------------------------------------------------------------

Gtr. 3 Riff B1

e----------------------------------------------------------------------
b----------------------------------------------------------------------
g----------------------------------------------------------------------
d-10-----10----10----10---10----10----12-14----14-------14---------14--
a--x------x-----x-----x----x-----x-----x--x-----x--------x----------x--
d-10-----10----10----10---10----10----12-14----14-------14---------14--

Gtr. 1

e----------------------------------------------------------------------------
b----------------------------15-15-15-15-------------------------------------
g-12\101010101010101010101010-x--x--x--x-9-9-9-9-9-9-9-9-9-9-9-9-15-15-15-15-
d--x-x-x-x-x-x-x-x-x-x-x-x-x-12-12-12-12-x-x-x-x-x-x-x-x-x-x-x-x--x--x--x--x-
a-10\8-8-8-8-8-8-8-8-8-8-8-8-------------7-7-7-7-7-7-7-7-7-7-7-7-13-13-13-13-
d----------------------------------------------------------------------------

Gtr. 3

e----------------------------------------------------------------------------
b----------------------------------------------------------------------------
g----------------------------------------------------------------------------
d-10---10--------10-10-------10----9---9------9-----2----------2-------------
a--x----x---------x--x--------x----x---x------x-----x----------x-------------
d-10---10--------10-10-------10----9---9------9-----2----------2-------------

Intro:

Gtr. 2

e----------------------------------------------------------------------------
b----------------------------------------------------------------------------
g-----------------------------2-2-2-2-2b-2b-2b-2b-2b-2b~~~~------------------
d----------------------------------------------------------------------------
a----------------------------------------------------------------------------
d-3-----------------/7-7-7--7------------------------------5--------/8~~~~~~-
[ Tab from: http://www.guitartabs.cc/tabs/s/slipknot/gently_tab_ver_8.html ]
Gtr. 1 Riff C

e----------------------------------------------------------------------------
b----------------------------------------------------------------------------
g----------------------------------------------------------------------------
d----------------------------------------------------------------------------
a-3--------------------------------------------------------------------------
d-3-----------------/7-7-7--7--2-----------2---------------5---------/8------

...yeah !...

e----------------------------------------------------------------------------
b----------------------------------------------------------------------------
g--------------------7-7-7--7----------------------------------------7-7-7---
d-3------------------x-x-x--x--2------------5-5-5--5-3---------------x-x-x---
a-x------------------5-5-5--5--x------------x-x-x--x-x---------------5-5-5---
d-3----------------------------2------------5-5-5--5-3-----------------------

e------------------------------------------
b------------------------------------------
g-7----------------------------------------
d-x--2----------2-2----------------8-8-8---
a-5--x----------x-x----------------x-x-x---
d----2----------2-2----------------8-8-8---

Verse: ...Gently...

e----------------------------------------------------------------------------
b----------------------------------------------------------------------------
g----------------------------------------------------------------------------
d----------------------------------------------------------------------------
a-(5)--------------------------------(5)-------------------------------------
d----------------------------------------------------------------------------

Chorus: Riff C

Interlude:

x2
e-131313131313131313131313131717171712121212121212121212121212121212121212---
b-131313131313131313131313131717171712121212121212121212121212121212121212---
g----------------------------------------------------------------------------
d----------------------------------------------------------------------------
a----------------------------------------------------------------------------
d----------------------------------------------------------------------------

x2
e-1313131313131313131313131313171717121212121212121717171715151515-----------
b-1313131313131313131313131313171717121212121212121717171715151515-----------
g----------------------------------------------------------------------------
d----------------------------------------------------------------------------
a----------------------------------------------------------------------------
d----------------------------------------------------------------------------

Gtr. 1&3 trem pick

e-12-12b---------------12-12b-----------------12-12b---------------12-12b----
b-12-12b---------------12-12b-----------------12-12b---------------12-12b----
g----------------------------------------------------------------------------
d----------------------------------------------------------------------------
a----------------------------------------------------------------------------
d----------------------------------------------------------------------------

Gtr. 2 trem pick

e----------------------------------------------------------------------------
b----------------------------------------------------------------------------
g----------------------------------------------------------------------------
d----------------------------------------------------------------------------
a----------------------------------------------------------------------------
d-3-----0-3-0-3-------0----3-------0--3-------0-3-----0-0----3----0----------

Interlude: play faster

Fig. 1

e----------------------------------------------------------------------------
b----------------------------------------------------------------------------
g----------------------------------------------------------------------------
d----------------------------------------------------------------------------
a-0-0-1-0-3----0-4-3-1------0-0-0---0-1-0-3----0-4-3-1------0-0-0------------
d-0-0-1-0-3----0-4-3-1------0-0-0---0-1-0-3----0-4-3-1------0-0-0------------

then, this bar goes from 2/4 to 3/4 time

e----------------------------------------------------------------------------
b----------------------------------------------------------------------------
g----------------------------------------------------------------------------
d----------------------------------------------------------------------------
a----0-1-0-3----0-1-0-3----0-1-0-3----0-1-0-3----0-1-0-3----0-1-0-3----4-3-1-
d----0-1-0-3----0-1-0-3----0-1-0-3----0-1-0-3----0-1-0-3----0-1-0-3----4-3-1-

thats about all of it

trevor jones
timmy91199@yahoo.ca
Comments