Slipknot - Gently Chords & Tabs

 

Gently Chords & Tabs

Slipknot Chords & Tabs

Version: 7 Type: Tab 0 ratings
1 star 2 stars 3 stars 4 stars 5 stars
comments

Gently Tab

   
Intro
/////


Tuning = (B-F#-B-E-G#-C#)

Key:
h = hammer on
p = pull off
x = dont play that string
~ = vibrato
^ = bend up
/ = slide

Intro :

e|---------1p0--------------0------------------------------------|
b|-----3-------3--------3-----3---3------------------------------|
g|---2---2-------2----3---3-----3---------3---3---3---3---2~~~---|
d|-0------------------------------------2------------------------|
a|------------------1-----------------0-----0---0---0---0------0-|
d|---------------------------------------------------------------|

e|---------4h5--------8p6-------6--------------------------------|
b|---5h6-------6----------6---6---6------------------------------|
g|---------------7----------7-------------3---3---3---3---2~~~---|
d|-0-----0----------0-------------------2------------------------|
a|------------------------------------0-----0---0---0---0------0-|
d|---------------------------------------------------------------|

(0:13) here the delay kicks in

e|---------1p0--------------0------------------------------------|
b|-----3-------3--------3-----3---3------------------------------|
g|---2---2-------2----3---3-----3---------3---3---3---3---2~~~---|
d|-0------------------------------------2------------------------|
a|------------------1-----------------0-----0---0---0---0------0-|
d|---------------------------------------------------------------|

e|---------4h5--------8-6h8p6-------6-------------------------------|
b|---5h6-------6--------------6---6---6-----------------------------|
g|---------------7--------------7------------3---3---3---3---2~~~---|
d|-0-----0----------0----------------------2------------------------|
a|---------------------------------------0-----0---0---0---0------0-|
d|------------------------------------------------------------------|

(0:27) here the drum kicks in; repeat everything with this over it :

e|----------------------------------------------|
b|----------------------------------------------|
g|----------------------------------------------|
d|---------------------0~~~---------------------|
a|---------------------0~~~---------------------|
d|---0~~~--0--2--3~~~---------------------------|

(0:53) play this riff 4 times

e|---------1p0---0----------3----------------0----------0------0-----|
b|-----3-------3--------1-----1---1------1-----1---3------3------3---|
g|---2---2------------2---2-----2------0---0-----0----------0------0-|
d|-0----------------3------------------------------------------------|
a|-----------------------------------3----------------1-------3------|
d|-------------------------------------------------------------------|

(1:20) distortion !

e|-----|
b|-----|
g|-----|
d|-0~~-|
a|-0~~-|
d|-0~~-|

(1:46) play this twice
[ Tab from: http://www.guitartabs.cc/tabs/s/slipknot/gently_tab_ver_7.html ]
e|--------------------------------------------------|
b|--------------------------------------------------|
g|--------------------------------------------------|
d|-0~~--8~~-X-X-8\7~~-------------------------------|
a|-0~~--8~~-X-X-8\7~~-/slide up & down this string\-|
d|-0~~--8~~-X-X-8\7~~-------------------------------|
        PM|     PM|       PM|     PM|       PM|   PM|         PM  PM----|
|-----------------|-----------------|-----------------|-----------------|
|-----------------|-----------------|-----------------|-----------------|
|-----------------|-----------------|-----------------|-----------------|
|-0-0-0-0-0-0-0-0-|-8-8-8-8-8-8-8-8-|-8-7-7-7-7-7-7-7-|-(7)-7-7-7-7-7-7-|
|-0-0-0-0-0-0-0-0-|-8-8-8-8-8-8-8-8-|-8-7-7-7-7-7-7-7-|-(7)-7-7-7-7-7-7-|
|-0-0-0-0-0-0-0-0-|-8-8-8-8-8-8-8-8-|-8-7-7-7-7-7-7-7-|-(7)-7-7-7-7-7-7-|


      PM|     PM|            PM|
|-----------------|--------|------------|----------------|
|-----------------|--------|------------|----------------|
|-----------------|-4----5-|------------|----------------|
|-1-1-1-1-1-1-1-1-|-4----5-|-5-3-7------|----------------|
|-1-1-1-1-1-1-1-1-|-2----3-|-5-3-7------|-8-7------------|
|-1-1-1-1-1-1-1-1-|--------|-5-3-7------|------8-7--1B---|


Harmony ParT

||--------------------------------------------------|
||--------------------------------------------------|
||-7--7/10---10/9----\5-----------------------------|
||--------------------------------------------------|
||-5--5/8-----8/7----\3-----------------------------|
||--------------------------------------------------|


|--------------------------------------------------|
|--------------------------------------------------|
|--9--9/12---12/11---/7----------------------------|
|--------------------------------------------------|
|--7--7/10---10/9----/5----------------------------|
|--------------------------------------------------|

..


End Hard Part-  Quicker, Two guitars, 
First time- Gtr II plays only, Gtr I comes in after that.  After 8m, Only Gtr I plays

Gtr I
   PM--|         PM|     PM|      PM--|         PM|     PM|
|--------------|---------------|--------------|---------------|
|--------------|---------------|--------------|---------------|
|--------------|---------------|--------------|---------------|
|--0-0-0-3---0-|-5-3-1---0-0-0-|--0-0-0-3---0-|-5-3-1---0-0-0-|
|--0-0-0-3---0-|-5-3-1---0-0-0-|--0-0-0-3---0-|-5-3-1---0-0-0-|
|--0-0-0-3---0-|-5-3-1---0-0-0-|--0-0-0-3---0-|-5-3-1---0-0-0-|
|
Gtr II
|  PM--|         PM|     PM|      PM--|         PM|     PM|
|--------------|---------------|--------------|---------------|
|--------------|---------------|--------------|---------------|
|--------------|---------------|--------------|---------------|
|--0-0-0-3---0-|-5-3-1---0-0-0-|--0-0-0-3---0-|-5-3-1---0-0-0-|
|--0-0-0-3---0-|-5-3-1---0-0-0-|--0-0-0-3---0-|-5-3-1---0-0-0-|
|--0-0-0-3---0-|-5-3-1---0-0-0-|--0-0-0-3---0-|-5-3-1---0-0-0-|



scream

  PM----|     PM----|     PM--|       PM--|       PM--|     PM|
|---------------|---------------|---------------|----------------
|---------------|---------------|---------------|----------------
|---------------|---------------|---------------|----------------
|-0-0-0-0-3---0-|-0-0-3---0-0-0-|-3---0-0-0-3---|-0-0-0-3---0-0--
|-0-0-0-0-3---0-|-0-0-3---0-0-0-|-3---0-0-0-3---|-0-0-0-3---0-0--
|-0-0-0-0-3---0-|-0-0-3---0-0-0-|-3---0-0-0-3---|-0-0-0-3---0-0--
Comments