Slipknot - Gently Chords & Tabs

 

Gently Chords & Tabs

Slipknot Chords & Tabs

Version: 3 Type: Tab 0 ratings
1 star 2 stars 3 stars 4 stars 5 stars
comments

Gently Tab

                                     Gently
                                     ~~~~~~
                                   By: Slipknot
                         This Score tabbed by:  Bill Dunn

   Personal Notes:  After over a week of playing back parts of the song over and over again, i finally got tb his song done in it's entirety.  I used Power Tab Editor, and when i played it back, it sounded pretty close, but keep in mind that this is my interpertation, and im sticking to it.

   Notes on this song:  A very different (yet very pretty) song done by four of the same memebers of the band that brought you "Wait and Bleed," "Only one," and my personal favorite, "Snap."  The introduction of this song is the only real hard part.  The rest should come easy to you.  Like all songs on the MFKR album, a lot of palm muting is done.

Tuning- All strings tuned down a whole step, 6th string down two whole steps (C G C F A D)

Introduction (no distortion)-  only Gtr I plays first time, Gtr II comes in second time

   Gtr I

||------------------|-----------------|-------------|--------------|
||o---------6-5-----|---------5-------|-------------|--------------|
||------7-------7---|-----7-----7---7-|-------------|--------------|
||----7---7-------7-|---7---7-----8---|----7--8---8-|-(8)--8--7----|
||o-5---------------|-5---------------|-0-----------|--------------|
||------------------|-----------------|-------------|--------------|
|
|   Gtr II
||----------8-7-5-7-|---------7-------|-------------|--------------|
||o-----------------|-------------6---|-------------|--------------|
||------------------|-----------------|----6--7---7-|-(7)--7--6----|
||------------------|-----------------|-------------|--------------|
||o-5---------------|-5---------------|-0-----------|--------------|
||------------------|-----------------|-------------|--------------|


                                                                    4x
|---------4-5-----|-----8-6-------6---|-------------|---------------||
|-----6-------6---|---------6---6---6-|-------------|--------------o||
|---7---7-------7-|-------------------|-------------|---------------||
|-----------------|-----------8-------|----7--8---8-|-(8)--8--7-----||
|-5---------------|--5----------------|-0-----------|--------------o||
|-----------------|-------------------|-------------|---------------||
|
|                                                                   4x
|-----------------|-------------------|-------------|---------------||
|---3-5-3-5-6-5---|-(5)-----6-5-------|-------------|--------------o||
|-----------------|-------------------|----6--7---7-|-(7)--7--6-----||
|-----------------|-------------------|-------------|---------------||
|-----------------|-------------------|-0-----------|--------------o||
|-----------------|-------------------|-------------|---------------||


Real Pretty Part- One guitar

||------------------|-----------------------|
||o---------6-5-----|------------8----------|
||------7-------7---|------10------10----10-|
||----7---7-------7-|---10----10------10----|
||o-5---------------|-8---------------------|
||------------------|-----------------------|


                                                    4x
|------------------------|--------------------------||---------
|------------------------|-------------------------o||----------
|-------------9----------|---9----------9-----------||----------
|-------10------12-10----|-----12---------12--------||-0~~~~~~
|----10----10---------10-|--------12---------12----o||-0~~~~~~
|-10---------------------|-8---------10-------------||-0~~~~~~					                                         Fade out, 8m, rest for bass 8m.  Total, 16


Beginning of hard part
[ Tab from: http://www.guitartabs.cc/tabs/s/slipknot/gently_tab_ver_3.html ]
|-----|--------|--------------|--------|
|-----|--------|--------------|--------|
|-----|--------|--------------|--------|
|--0--|--8---8-|-8-7-(7)------|-(7)----|
|--0--|--8---8-|-8-7-(7)------|-(7)----|
|--0--|--8---8-|-8p7-(7)------|-(7)----|


Hard Part

        PM|     PM|       PM|     PM|       PM|   PM|         PM  PM----|
|-----------------|-----------------|-----------------|-----------------|
|-----------------|-----------------|-----------------|-----------------|
|-----------------|-----------------|-----------------|-----------------|
|-0-0-0-0-0-0-0-0-|-8-8-8-8-8-8-8-8-|-8-7-7-7-7-7-7-7-|-(7)-7-7-7-7-7-7-|
|-0-0-0-0-0-0-0-0-|-8-8-8-8-8-8-8-8-|-8-7-7-7-7-7-7-7-|-(7)-7-7-7-7-7-7-|
|-0-0-0-0-0-0-0-0-|-8-8-8-8-8-8-8-8-|-8-7-7-7-7-7-7-7-|-(7)-7-7-7-7-7-7-|


      PM|     PM|            PM|
|-----------------|--------|------------|----------------|
|-----------------|--------|------------|-5--------------|
|-----------------|-4----5-|------------|---5------------|
|-1-1-1-1-1-1-1-1-|-4----5-|-5-3-7------|-----4h5--1-----|
|-1-1-1-1-1-1-1-1-|-2----3-|-5-3-7------|----------------|
|-1-1-1-1-1-1-1-1-|--------|-5-3-7------|----------------|


Harmony Part-  I was a little unsure about this one...

||--------|--------------|---------------|---------||
||o-------|--------------|---------------|--------o||
||--7---7-|-7-10------10-|-10-9-(9)----9-|---5-----||
||--7---7-|-7-10------10-|-10-9-(9)------|---------||
||o-------|--------------|---------------|--------o||
||--------|--------------|---------------|---------||


|-----------|--------------|----------------|------|
|-6-------6-|-6-10------10-|-10-8-(8)-------|------|
|-7-------7-|-7-10------10-|-10-9-(9)----9--|-5----|
|-----------|--------------|----------------|------|
|-----------|--------------|----------------|------|
|-----------|--------------|----------------|------|


|-5------5--|-5--8-------8-|--8-7-(7)------|---(7)----|-5----
|-6------6--|-6-10------10-|-10-8-(8)------|---(8)----|-6----
|-7------7--|-7-10------10-|-10-9-(9)------|---(9)----|-7----
|-----------|--------------|---------------|----------|-----
|-----------|--------------|---------------|----------|-----
|-----------|--------------|---------------|----------|-----
                                                          Gently my mind escapes...


End Hard Part-  Quicker, Two guitars, 
First time- Gtr II plays only, Gtr I comes in after that.  After 8m, Only Gtr I plays

Gtr I
   PM--|         PM|     PM|      PM--|         PM|     PM|
|--------------|---------------|--------------|---------------|
|--------------|---------------|--------------|---------------|
|--------------|---------------|--------------|---------------|
|--0-0-0-3---0-|-5-3-1---0-0-0-|--0-0-0-3---0-|-5-3-1---0-0-0-|
|--0-0-0-3---0-|-5-3-1---0-0-0-|--0-0-0-3---0-|-5-3-1---0-0-0-|
|--0-0-0-3---0-|-5-3-1---0-0-0-|--0-0-0-3---0-|-5-3-1---0-0-0-|
|
Gtr II
|  PM--|         PM|     PM|      PM--|         PM|     PM|
|--------------|---------------|--------------|---------------|
|--------------|---------------|--------------|---------------|
|--------------|---------------|--------------|---------------|
|--0-0-0-3---0-|-5-3-1---0-0-0-|--0-0-0-3---0-|-5-3-1---0-0-0-|
|--0-0-0-3---0-|-5-3-1---0-0-0-|--0-0-0-3---0-|-5-3-1---0-0-0-|
|--0-0-0-3---0-|-5-3-1---0-0-0-|--0-0-0-3---0-|-5-3-1---0-0-0-|



Screaming Part-  A little complicated, but if you listen to it, you'll figure it out easily.

  PM----|     PM----|     PM--|       PM--|       PM--|     PM|
|---------------|---------------|---------------|----------------
|---------------|---------------|---------------|----------------
|---------------|---------------|---------------|----------------
|-0-0-0-0-3---0-|-0-0-3---0-0-0-|-3---0-0-0-3---|-0-0-0-3---0-0--
|-0-0-0-0-3---0-|-0-0-3---0-0-0-|-3---0-0-0-3---|-0-0-0-3---0-0--
|-0-0-0-0-3---0-|-0-0-3---0-0-0-|-3---0-0-0-3---|-0-0-0-3---0-0--


And that's everything...  

Anything pissing you off in this tab?
Email me:  BTDJR444@hotmail.com
Comments