Slipknot - Gently Chords & Tabs

 

Gently Chords & Tabs

Slipknot Chords & Tabs

Version: 11 Type: Tab 0 ratings
1 star 2 stars 3 stars 4 stars 5 stars
comments

Gently Tab

                      Gently
                                    

Notes about this song:  A very different, (yet very pretty) song brought to
you by four of the same members of the band that brought you "Wait and Bleed,"
"Only one," and my personal favorite, "Snap."  This song has a very complicated
introduction, but with practice it can be done.  It requires two guitars, but
only for a small portion of the song.  So far i only have the introduction written,
but it is the hardest part, and if you don't want to wait for me to update this,
you're probably better off figuring the rest out for youself.  ENJOY!!!


|-----------------|-----------------|--------------|-------------|
|---------6-5-----|---------5-------|--------------|-------------|
|-----7-------7---|-----7-----7---7-|--------------|-------------|
|---7---7-------7-|---7---7-----8---|----7--8----8-|-(8)-8--7----|
|-5---------------|-5---------------|-0------------|-------------|
|-----------------|-----------------|--------------|-------------|


|---------4-5-----|---8-6-------6---|--------------|--------------|
|-----6-------6---|-------6---6---6-|--------------|--------------|
|---7---7-------7-|-----------------|--------------|--------------|
|-----------------|---------8-------|----7--8----8-|-(8)--8--7----|
|-5---------------|-5---------------|-0------------|--------------|
|-----------------|-----------------|--------------|--------------|

[ Tab from: http://www.guitartabs.cc/tabs/s/slipknot/gently_tab_ver_11.html ]
2 guitars- rythm part is written exactly under where it is played in contrast to the lead part
    
||------------------|-----------------|--------------|--------------|
||o---------6-5-----|---------5-------|--------------|--------------|
||------7-------7---|-----7-----7---7-|--------------|--------------|
||----7---7-------7-|---7---7-----8---|----7--8----8-|-(8)--8--7----|
||o-5---------------|-5---------------|-0------------|--------------|
||------------------|-----------------|--------------|--------------|
|
|
| 
||----------8-7-5-7-|---------7-------|--------------|--------------|
||o-----------------|-------------6---|--------------|--------------|
||------------------|-----------------|----6--7----7-|-(7)--7--6----|
||------------------|-----------------|--------------|--------------|
||o-5---------------|-5---------------|-0------------|--------------|
||------------------|-----------------|--------------|--------------|


                                                                     3x
|---------4-5-----|-----8-6-------6---|--------------|---------------||
|-----6-------6---|---------6---6---6-|--------------|--------------o||
|---7---7-------7-|-------------------|--------------|---------------||
|-----------------|-----------8-------|----7--8----8-|-(8)--8--7-----||
|-5---------------|--5----------------|-0------------|--------------o||
|-----------------|-------------------|--------------|---------------||
|
|                                                                    3x
|-----------------|-------------------|--------------|---------------||
|---3-5-3-5-6-5---|-(5)-----6-5-------|--------------|--------------o||
|-----------------|-------------------|----6--7----7-|-(7)--7--6-----||
|-----------------|-------------------|--------------|---------------||
|-----------------|-------------------|-0------------|--------------o||
|-----------------|-------------------|--------------|---------------||



||------------------|-----------------------|
||o---------6-5-----|------------8----------|
||------7-------7---|------10------10----10-|
||----7---7-------7-|---10----10------10----|
||o-5---------------|-8---------------------|
||------------------|-----------------------|


                                                4x
|------------------------|----------------------||
|------------------------|---------------------o||
|-------------9----------|---9-7------9-7-------||
|-------10------12-10----|-------7--------7-----||
|----10----10---------10-|---------------------o||
|-10---------------------|-8-------10-----------||
Comments