Slipknot - Gently Chords & Tabs

 

Gently Chords & Tabs

Slipknot Chords & Tabs

Version: 10 Type: Tab 0 ratings
1 star 2 stars 3 stars 4 stars 5 stars
comments

Gently Tab

   
Gently - Slipknot
 Iowa 
Drop b
|-------------------------------------------------------------|
|-------------------------------------------------------------|
|-------------------------8-8-8-8\----------------------------|
|-4-4-4-4-4-4-4-4-4-4-4-4---------3-3-3-3-3-3-3-3-3-3-3-3-3-3-| X5 
|-------------------------------------------------------------|
|-------------------------------------------------------------| 

|-------------------------------------------------------------|
|-------------------------------------------------------------|
|-------------------------8-8-8-8\---------------5-5-5-5\-----|
|-4-4-4-4-4-4-4-4-4-4-4-4---------3-3-3-3-3-3-3---------------|__
|-------------------------------------------------------------|  |
|-------------------------------------------------------------|  |
 									     |X4
|-------------------------------------------------------------|  |
|-------------------------------------------------------------|__|
|-------------------------8-8-8-8\---------------4-4-4-4\-----|
|-4-4-4-4-4-4-4-4-4-4-4-4---------3-3-3-3-3-3-3---------------|
|-------------------------------------------------------------|
|-------------------------------------------------------------| 

|----------------------------------------------------------------|
|----------------------------------------------------------------|
|----------------------------------------------------------------|
|-4-4-4-4-4-4-4-4-4-4-4-4--8-8-8-8\--3-3-3-3-3-3-3--4--6/7Bu-----|X4
|-4-4-4-4-4-4-4-4-4-4-4-4--8-8-8-8\--3-3-3-3-3-3-3--4--6/7BU-----|
|-4-4-4-4-4-4-4-4-4-4-4-4--8-8-8-8\--3-3-3-3-3-3-3--4--6/7Bu-----|
[ Tab from: http://www.guitartabs.cc/tabs/s/slipknot/gently_tab_ver_10.html ]
|-------------------------------------------------------------|
|-------------------------------------------------------------|
|-------------------------8-8-8-8\---------------5-5-5-5\-----|
|-4-4-4-4-4-4-4-4-4-4-4-4---------3-3-3-3-3-3-3---------------|__
|-------------------------------------------------------------|  |
|-------------------------------------------------------------|  |
 									     |X4
|-------------------------------------------------------------|  |
|-------------------------------------------------------------|__|
|-------------------------8-8-8-8\---------------4-4-4-4\-----|
|-4-4-4-4-4-4-4-4-4-4-4-4---------3-3-3-3-3-3-3---------------|
|-------------------------------------------------------------|
|-------------------------------------------------------------| 

|----------------------------------------------------------------|
|----------------------------------------------------------------|
|----------------------------------------------------------------|
|-4-4-4-4-4-4-4-4-4-4-4-4--8-8-8-8\--3-3-3-3-3-3-3--4--6Bu-------|X8
|-4-4-4-4-4-4-4-4-4-4-4-4--8-8-8-8\--3-3-3-3-3-3-3--4--6Bu-------|
|-4-4-4-4-4-4-4-4-4-4-4-4--8-8-8-8\--3-3-3-3-3-3-3--4--6Bu-------|

|--------------------------------------------------------|
|--------------------------------------------------------|
|--6/8---6/8---6/8---6/8---6/8---6/8---6/8---6/8---------|
|--6/8---6/8---6/8---6/8---6/8---6/8---6/8---6/8----12/0-|X1
|--6/8---6/8---6/8---6/8---6/8---6/8---6/8---6/8----12/0-|
|---------------------------------------------------12/0-|

|--------------------------|
|--------------------------|
|--------------------------|
|-1-1-1--4--1-6-4-3--1-1-1-| X12
|-1-1-1--4--1-6-4-3--1-1-1-|
|-1-1-1--4--1-6-4-3--1-1-1-|

|--------------------------------------------------------------------------------|
|--------------------------------------------------------------------------------|
|--------------------------------------------------------------------------------|
|-1-3-1-4---1-3-1-4---1-3-1-4---1-3-1-4---1-3-1-4---1-3-1-4---1-3-1-4---1-3-1-4--|
|-1-3-1-4---1-3-1-4---1-3-1-4---1-3-1-4---1-3-1-4---1-3-1-4---1-3-1-4---1-3-1-4--|
|-1-3-1-4---1-3-1-4---1-3-1-4---1-3-1-4---1-3-1-4---1-3-1-4---1-3-1-4---1-3-1-4--|

|--------------------------|
|--------------------------|
|--------------------------|
|-1-1-1--4--1-6-4-3--1-1-1-| X12
|-1-1-1--4--1-6-4-3--1-1-1-|
|-1-1-1--4--1-6-4-3--1-1-1-|

And that's it.
Comments