Slipknot - Gently Chords & Tabs

 

Gently Chords & Tabs

Slipknot Chords & Tabs

Version: 5 Type: Bass Tab 0 ratings
1 star 2 stars 3 stars 4 stars 5 stars
comments

Gently Bass Tab

  Play this 4times then the guitar comes in then u play it 4 more times 
E|---------------------------------------------------------------------|
D|---------------------------------------------------------------------|
F|---------------------------------------------------------------------|
D|---3--3-3-3---3-3-3-3-3-3-3-3/7-7-7--7/2-2-2-2--2-2-2-2-2-2-2-2/5-5-5|

play this 1time
E|--------------------------------------|
D|--------------------------------------|
F|--------------------------------------|
D|--7/2-2-2-2-2-2--2-2-2-2-2-2---2-2-2-2|
then...
play this 2times
E|------------------------------------------------------------------|
D|------------------------------------------------------------------|
F|------------------------------------------------------------------|
D|--3--3-3-3--3-3-3-3-3-3-3-3--3/7-7-7-7/2-2-2-2--2-2--2-2-5----7--7|


E|-----------------------------------|-----------------------|
D|-----------------------------------|-----------------------|
F|-----------------------------------|-----------------------|
D|--7/2-2-2-2--2--2-2-2-2-2-5----7--7|--3-------------------2|

E|---------------------------------------|
D|---------------------------------------|
F|---------------------------------------|
D|-3---------2------2/8--8------8-----5-5|
[ Tab from: http://www.guitartabs.cc/tabs/s/slipknot/gently_btab_ver_5.html ]
E|---------------------------------------------------------|
D|---------------------------------------------------------|
F|--5/7---------------10-10---8-----8-5-5---5/7------------|
D|-------2----------2----------------------------2-2-5-5---|

E|---------------------------------------------------|
D|---------------------------------------------------|
F|---------------------------------------------------|
D|--3--------3--0-----2----2-2-2-2-2-2-2-2-x---------|
play this 5times
E|-----------------------------------------------------------------|
D|-----------------------------------------------------------------|
F|-----------------------------------------------------------------|
D|--3--3-3-3----3-3-3-3-3-3-3-3--7-7-7--7-2-2-2-2--2-2-2--2-5--7--7|
1time
E|-----------------------------------------|
D|-----------------------------------------|
F|-----------------------------------------|
D|--3-3--3-3-3---3-3-3-3-3-3-3-3-3-3-7-7-7-|

play this 3times
E|---------------------------------------|
D|---------------------------------------|
F|---------------------------------------|
D|--3-3--3-3-3--2-2-2-2-2---2-2-5---7--7-|
play 2times
E|------|----------------|
D|------|----------------|
F|------|----------------|
D|--3---|--3----------3-x|
play 5times
E|---------|----------------------------|
D|---------|----------------------------|
F|---------|----------------------------|
D|--0-0-1-0|--0-1-0-3---1--5-3-1--10--10|

play this 8times
E|------------------------------|
D|------------------------------|
F|------------------------------|
D|-0-1-0-3--1--5-3-1--1--1-1-1-0|
Comments