Slipknot - Gently Chords & Tabs

 

Gently Chords & Tabs

Slipknot Chords & Tabs

Version: 2 Type: Bass Tab 0 ratings
1 star 2 stars 3 stars 4 stars 5 stars
comments

Gently Bass Tab

   
Band - Slipknot
Song - Gently
Album - Iowa
Tab - for bass guitar
Tabbed by --- Voice (crs2k@mail.ru  or  crs2k@land.ru)
Same tuning as Mudvayne (b,f#,b,e,g#,c#) from low to high.

Please email me if u find any another mistakes in this tab.

E -------------------------------------------------
B -------------------------------------------------
F#-------------------------------------------------
B --3---333---3333333777---7\2---222---2222222555-- x16

E -------------------------------------------------------------------
B -------------------------------------------------------------------
F#-------------------------------------------------------------------
B --3---2---3---2---888---3---0002---3---0002---3---0002---22222222--
[ Tab from: http://www.guitartabs.cc/tabs/s/slipknot/gently_btab_ver_2.html ]
E -------------------------------------------------
B -------------------------------------------------
F#-------------------------------------------------
B --3---333---3333333777---7\2---222---2222222555-- x8

E -----------------...------...---------------
B -----------------...------...---------------
F#-----------------...------...---------------
B --3---3---3---3--...--7\--...--7\---7\---0--

E ---------------------------
B ---------------------------
F#---------------------------
B --0-1-0-3---0-4-3-1---000-- x8

E -----------     ... -----------
B -----------     ... -----------
F#-----------     ... -----------
B --0-1-0-3-- x8  ... --5-3-0-1--

E ---------------------------
B ---------------------------
F#---------------------------
B --0-1-0-3---0-4-3-1---000-- x12
Comments