Slipknot - Eyeore Chords & Tabs

 

Eyeore Chords & Tabs

Slipknot Chords & Tabs

Version: 1 Type: Tab 0 ratings
1 star 2 stars 3 stars 4 stars 5 stars
comments

Eyeore Tab

   
-------------------------------------------------------------------------------
			     Eeyore - Slipknot
-------------------------------------------------------------------------------
Tabbed by:Tyler Savage
Email:Heartagram_ville@hotmail.com, add me if you got questions.

Tuning:B F# B 

| /  slide
| p  pull-off
| .  Mute note
| *  Finger Mute

e|------------------------------------------------------------------------|
B|------------------------------------------------------------------------|
G|------------------------------------------------------------------------|
D|------------------------------------------------------------------------|
A|*-*-*-15----------------------------------------------------------------|
E|*-*-*-15--X13-----------------------------------------------------------|

e|------------------------------------------------------------------------|
B|------------------------------------------------------------------------|
G|------------------------------------------------------------------------|
D|------------------------------------------------------------------------|
A|7-7-7-7-7-7-7-7-3-3-3-3-2-2-2-2-----------------------------------------|
E|7-7-7-7-7-7-7-7-3-3-3-3-2-2-2-2---X4------------------------------------|

e|------------------------------------------------------------------------|
B|------------------------------------------------------------------------|
G|------------------------------------------------------------------------|
D|------------------------------------------------------------------------|
A|------------------------------------------------------------------------|
E|7-7-7-7-7-7-7-7-3-3-3-3-2-2-2-2---X2------------------------------------|

e|------------------------------------------------------------------------|
B|------------------------------------------------------------------------|
G|------------------------------------------------------------------------|
D|------------------------------------------------------------------------|
A|7-7-7-7-7-7-7-7-3-3-3-3-2-2-2-2-----------------------------------------|
E|7-7-7-7-7-7-7-7-3-3-3-3-2-2-2-2---X4------------------------------------|
[ Tab from: http://www.guitartabs.cc/tabs/s/slipknot/eyeore_tab.html ]
e|-------------------------------------------------------------------------|
B|-------------------------------------------------------------------------|
G|-------------------------------------------------------------------------|
D|---------------------------------------------------------------------4---|
A|0-------------------3p0-0--3p0-0--5-6--0-----------------------5--3------|
E|0-0-0-0-0-0-0-0-0-0-3p0-0--3p0-0--5-6--0-0-0-0-0-0-0-0-0-0--3----------X6|
    . . . . . . . . .                      . . . . . . . . .

e|-------------------------------------------5-5---------------------------|
B|-------------------------------6-6---4-4---------------------------------|
G|--------------------------3-3--------------------------------------------|
D|-------------------------------------------------------------------------|
A|-0-0--3p0-0--3p0-0--5-6--------------------------------------------------|
E|-0-0--3p0-0--3p0-0--5-6----------------------------X5--------------------|

e|-------------------------------------------------------------------------|
B|-------------------------------------------------------------------------|
G|-------------------------------------------------------------------------|
D|-------------------------------------------------------------------------|
A|12/0---7-7-7-7-7-7-7-7-3-3-3-3-2-2-2-2-----------------------------------|
E|12/0---7-7-7-7-7-7-7-7-3-3-3-3-2-2-2-2---X4------------------------------|
play 12/0 only the first time

e|-------------------------------------------------------------------------|
B|-------------------------------------------------------------------------|
G|-------------------------------------------------------------------------|
D|-------------------------------------------------------------------------|
A|*-*-*-15------*-*-*------------------------------------------------------|
E|*-*-*-15--X4--*-*-*------------------------------------------------------|

e|-------------------------------------------------------------------------|
B|-------------------------------------------------------------------------|
G|-------------------------------------------------------------------------|
D|-------------------------------------------------------------------------|
A|-12/0--------------------------------------------------------------------|
E|-12/0--------------------------------------------------------------------|

Strum 0 over and over

============================================================================
Comments