Slipknot - Eyeless Chords & Tabs

 

Eyeless Chords & Tabs

Slipknot Chords & Tabs

Version: 7 Type: Tab 0 ratings
1 star 2 stars 3 stars 4 stars 5 stars
comments

Eyeless Tab

   
Thanks to: TZA i like your style

   SONG: Eyeless
   BAND: Slipknot
  ALBUM: Slipknot
 TRANSCRIBED BY: Fernando Delgado/Josue Toledo/Eduardo Galan
	     
                       Peos Verdes

TUNING: down 1.5 steps and then drop d (B-F#-B-E-G#-C#)


     FIGURE 1:

   C#|-11-11-11-10-11-10-11-10-|-10-10-10-10-10-10-10-10-10-|
   G#|-14-14-14-13-14-13-14-13-|-13-13-13-13-13-13-13-13-13-|
    E|-------------------------|----------------------------|
    B|-------------------------|----------------------------|
   F#|-------------------------|----------------------------|
    B|-------------------------|----------------------------|

     FIGURE 2:

   C#|-----------------|-----------------|
   G#|-----------------|-----------------|
    E|---------3-3-3-3-|-----------------|
    B|-0-0-0-1-3-3-3-3-|-0-0-------------|
   F#|-0-0-0-1-1-1-1-1-|-0-0-------------|
    B|-0-0-0-1---------|-0-0-------------|

     FIGURE 3:

   C#|-----------------|-----------------|
   G#|-----------------|-----------------|
    E|---------3-3-----|-------3-----3---|
    B|-0-0-0-1-3-3-0-0-|-0-0-1-3-0-0-3-1-|
   F#|-0-0-0-1-1-1-0-0-|-0-0-1-1-0-0-1-1-|
    B|-0-0-0-1-----0-0-|-0-0-1---0-0---1-|

     FIGURE 4:
[ Tab from: http://www.guitartabs.cc/tabs/s/slipknot/eyeless_tab_ver_7.html ]
   C#|-----------------|-----------------|
   G#|-----------------|-----------------|
    E|---------3-3-----|-----------------|
    B|-0-0-0-1-3-3-0-0-|-----------------|
   F#|-0-0-0-1-1-1-0-0-|-----------------|
    B|-0-0-0-1-----0-0-|-----------------|

     FIGURE 5:

   C#|-----------------|
   G#|-----------------|
    E|-9-9-9-x-9-9-9-8-|
    B|-8-8-8-x-8-8-8-7-|
   F#|-7-7-7-x-7-7-7-6-|
    B|-----------------|

     FIGURE 6:
 
   C#|-----------------|-----------------|
   G#|-----------------|-----------------|
    E|-----------s-----|-----------------|
    B|-0-0-0-6\\\\\\\1-|-0-0-1-x-0-0-1-x-|
   F#|-0-0-0-6\\\\\\\1-|-0-0-1-x-0-0-1-x-|
    B|-0-0-0-6\\\\\\\1-|-0-0-1-x-0-0-1-x-|

     FIGURE 7:

   C#|-----------------|
   G#|-----------------|
    E|-----------------|
    B|-0---4---1-2-----|
   F#|-0---4---1-2-----|
    B|-0---4---1-2-----|

     ORDER:

    fig1 x 10
    fig2 x 2  (Start on 3rd loop of fig1)
    fig3 x 10 (Start straight after fig2)
    fig4 x 4
    fig3 x 4
    fig4 x 4
    fig3 x 4
    fig5 x 8
    fig1 x 4
    fig2 x 1  (Start on 3rd loop of fig1)
    fig3 x 1  (Start straight after fig2)
    fig4 x 4
    fig3 x 4
    fig5 x 8
    fig6 x 14
    fig1 + fig 7 x 12
    fig6 x 8
    Pause while shouting mother@#!%$
    (Half time feel)
    fig6 x 8
Comments