Slipknot - Eyeless Chords & Tabs

 

Eyeless Chords & Tabs

Slipknot Chords & Tabs

Version: 3 Type: Tab 0 ratings
1 star 2 stars 3 stars 4 stars 5 stars
comments

Eyeless Tab

   
SLIPKNOT - EYELESS

Tabbed by Roland Muntoiu

Tuning; Drop D, down 1½ step (B F# B E G# C#) 

Right, this is my first submitted tab, but im 100% sure that this is correct,
as opposed to tabs submitted by tone-deaf dimwits that mysteriously enough 
got their tabs onto www.guitartabs.cc.... Anyway, here it goes:

Symbols:
< - Slide downwards

Guitar 1; Intro (There are so many ways to do this part, but this is the way that fits me the best:)
C#--12-12-12--12------------------------
G#----------16---16-16-16-16-16-16-16-16
E --------------------------------------
B --------------------------------------
F#--------------------------------------
B --------------------------------------
[ Tab from: http://www.guitartabs.cc/tabs/s/slipknot/eyeless_tab_ver_3.html ]
Guitar 2; Intro
C#---------------------l-----------------------
G#---------------------l-----------------------
E ---------------------l-----------------------
B ---------------------l-----------0------------
F#----------2--1-------l---2-----0--------------
B --0-0-0-3--3---2-0-0-l-0---0-0---------------   (Not COMPLETELY sure about the follow-up but it does sound correct.)

Both Guitars; Pre-verse
C#---------------------------------
G#---------------------------------
E ---------------------------------
B --0-0-0-0-3-0-2-3-0-0-0-6-0-0-0-6
F#--0-0-0-0-3-0-2-3-0-0-0-6-0-0-0-6
B --0-0-0-0-3-0-2-3-0-0-0-6-0-0-0-6

Both Guitars; Verse
C#-------------------
G#-------------------
E -------------------
B --0-0-0-0-3-0-2-(3)
F#--0-0-0-0-3-0-2-(3)
B --0-0-0-0-3-0-2-(3)                             The last 3 which is in parenthesis is optional, sounds good either way.

Both Guitars; Recurring Interlude (?) (Again, this can be played another way also, but this is my method of choice)
C#------
G#------
E ------
B -(9)--
F#--8---
B --9---                                         Just keep repeating this. Listen to the track to get the rhythm. Again, 
                                                 parts in parenthesis are optional, sounds good either way. Sounds fuller 
                                                 with the second 9, though
Both Guitars; Second part of the song/Outro;
C#-----------------------
G#-----------------------
E -----------------------
B --0-0-0-6
Comments