Slipknot - Everything Ends Chords & Tabs

 

Everything Ends Chords & Tabs

Slipknot Chords & Tabs

Version: 1 Type: Bass Tab 0 ratings
1 star 2 stars 3 stars 4 stars 5 stars
comments

Everything Ends Bass Tab

   
Band- Slipknot
Song- Everything Ends

Tunnin: A,E,A,D

Intro I
D|-----------------------------------------------------------------|
A|-----------------------------------------------------------------|
E|-----------------------------------------------------------------|
A|-1/-101010101010101099999999333333336666666655555555551111111111-|

Intro II
D|----------------------------------------|
A|----------------------------------------|
E|----------------------------------------|
A|-0/2/4\2-0--2/4\2-0-4-0-6-0-4-0/2/4\2-0-|

Verse
D|-------------------------|
A|-------------------------|
E|-------------------------|
A|-2-1-0-1-0-1/2--1/2--1/2-|

Play this just before the chorus
D|------|
A|------|
E|------|
A|-0010-|

Chorus I
D|--------------------------------------------------------------|
A|--------------------------------------------------------------|
E|--------------------------------------------------------------|x2
A|-101010101010101099999999333333336666666655555555551111111111-|

Chorus II
D|------------------------------------------------------------------|
A|------------------------------------------------------------------|
E|------------------------------------------------------------------|x2
A|-1010101010101010999999993333333366666666555555555555111111111111-|
[ Tab from: http://www.guitartabs.cc/tabs/s/slipknot/everything_ends_btab.html ]
D|--------------------------------------------------------------------------------------|
A|------------------------------------------2-2/4\2-2-2/4\2-2/4\2-----------------------|
E|----------------------------------------------------------------2-2/4\2-2-2/4\2-2/4\2-|x1
A|-1010101010101010999999993333333366666666---------------------------------------------|

D|------------------------------------------------------------------|
A|------------------------------------------------------------------|
E|------------------------------------------------------------------|x1
A|-1010101010101010999999993333333366666666555555555555111111111111-|

Bridge 
D|-----------------|
A|-----------------|
E|-----------------|x4
A|-0-1-6-1-0-1-0-1-|

Heavy bridge
D|-----------------|
A|-----------------|
E|-----------------|x9
A|-0-1-6-1-0-1-0-1-|

D|---------------------|
A|---------------------|
E|---------------------|x1
A|--8\-0-1-6-1-0-1-0-1-|

D|-----------------|
A|-----------------|
E|-----------------|x5
A|-0-1-6-1-0-1-0-1-|

Before last chorus:
D|---------------------------|
A|---------------------------|
E|---------------------------|x1
A|-0-6-0-6-0-1-0-1-0-6-0-6-0-|

Last chorus: Same as Chorus II

Outro
D|----------------------------------------|
A|----------------------------------------|
E|----------------------------------------|x3
A|-0/2/4\2-0--2/4\2-0-4-0-6-0-4-0/2/4\2-0-|

D|--------------------------|
A|--------------------------|
E|--------------------------|x1
A|-0/2/4\2-0--2/4\2-0-4-0-6-|
Comments