Slipknot - Eeyore Chords & Tabs

 

Eeyore Chords & Tabs

Slipknot Chords & Tabs

Version: 1 Type: Tab 0 ratings
1 star 2 stars 3 stars 4 stars 5 stars
comments

Eeyore Tab

Slipknot, Eeyore.
Tabbed by Guy Snowden, guy_snowden@hotmail.com.
  
Band: Slipknot
Song: Eeyore
Tuning: Drop B (With gain turned right up)
Tabbed by: Mr. Bungle (Guy Snowden)
Key: PM = Palm Mute (Dash underneath muted chord)
    < > = Harmonics (Play notes between these as harmonics)
      p = Pull off
      h = Hammer on

Comments: This thrashy little number by Slipknot is a real workout, I had to digitally slow it down to get all the notes right. Iíve divided it up into 4/4 bars, just follow the directions as it is already structured. Feel free to put this tab elsewhere on the internet, but please donít call it your own because this took me hours.



C#|-----------------|-----------------|
G#|<00000000>-------|<00000000>-------|   \  /   /|
E |-444444445-------|-444444445-------|    \/   / |
B |---------3-------|---------3-------|    /\  |__|_
F#|-----------------|-----------------|   /  \    |
B |-----------------|-----------------|


1st Guitar                              __
C#|-----------------|-----------------|   \
G#|<00000000>-------|<00000000>-------|   |
E |-444444445-------|-444444445-------|   |
B |---------3-------|---------3-------|   |
F#|-----------------|-----------------|   |
B |-----------------|-----------------|   |   \  /   /|
                                           \   \/   / |
2nd Guitar                                 /   /\  |__|_
C#|-----------------|-----------------|   |   /  \    |
G#|-----------------|-----------------|   |
E |-----------------|-----------------|   |    Play open B chord, then
B |-----------------|-----------------|   | ß turn volume up one bar
F#|-----------------|-----------------|   |    before playing this part
B |-000011110-------|-000011110-------| __/
PM          -                 -

1st Guitar                             __
C#|-----------------|----------------|   \
G#|-2-2-2-2-2-2-2-2-|----------------|   |
E |-2-2-2-2-2-2-2-2-|2-2-2-2-1-1-1-1-|   |
B |-----------------|3-3-3-3-2-2-2-2-|   |
F#|-----------------|----------------|   |          
B |-----------------|----------------|   |   \  /   /|
                                          \   \/   / |
2nd Guitar                                /   /\  |__|_
C#|-----------------|----------------|   |   /  \    |
G#|-----------------|----------------|   |
E |-----------------|----------------|   |
B |-----------------|----------------|   |
F#|-----------------|----------------|   |
B |-7-7-7-7-7-7-7-7-|3-3-3-3-2-2-2-2-|__/




1st Guitar                                                               __
C#|-----------------|----------------|----------------|----------------|   \ 
G#|-----------------|----------------|----------------|----------------|   |
E |-----------------|----------------|----------------|----------------|   |
B |-----------------|----------------|----------------|----------------|   |
F#|-----------------|----------------|7777777777777777|3333333322222222|   |  \   /  /|
B |-----------------|----------------|----------------|----------------|    \  \ /    |
                                                                             >  X     |
2nd Guitar                                                                  /  / \    |
C#|-----------------|----------------|----------------|----------------|   |  /   \  _|_
G#|-----------------|----------------|----------------|----------------|   |
E |-----------------|----------------|----------------|----------------|   |
B |-----------------|----------------|----------------|----------------|   |
F#|-----------------|----------------|----------------|----------------|   |
B |-7777777777777777|3333333322222222|7777777777777777|3333333322222222|__/

Both Guitars
C#|-----------------|----------------|
G#|-----------------|----------------|   \  /   /|
E |-----------------|----------------|    \/   / |
B |-----------------|----------------|    /\  |__|_
F#|-----------------|----------------|   /  \    |
B |-7-7-7-7-7-7-7-7-|3-3-3-3-2-2-2-2-|


[ Tab from: http://www.guitartabs.cc/tabs/s/slipknot/eeyore_tab.html ]
1st Guitar                                                               __
C#|-----------------|----------------|----------------|----------------|   \
G#|-----------------|----------------|----------------|----------------|   |
E |-----------------|----------------|----------------|----------------|   |
B |-3p0-------------|3p0-0-3p0-0-3h5-|3p0-------------|------------4---|   |
F#|-3p0-------------|3p0-0-3p0-0-3h5-|3p0-------------|000055553333----|   |
B |-3p0-0-0-0-0-0-0-|3p0-0-3p0-0-3h5-|3p0-0-0-0-0-0-0-|----------------|   |  \   /  /|
PM      - - - - - -      -     -          - - - - - -                       \  \ /    |
                                                                             >  X     |
2nd Guitar                                                                  /  / \    |
C#|-----------------|----------------|----------------|----------------|   |  /   \  _|_
G#|-----------------|----------------|----------------|----------------|   |
E |-----------------|----------------|----------------|----------------|   |
B |-----------------|----------------|----------------|------------4---|   |
F#|-----------------|----------------|----------------|000055553333----|   |
B |-----------------|----------------|----------------|----------------|__/

***
Both Guitars
C#|-----------------|----------------|----------------|----------------|         __
G#|-----------------|----------------|----------------|----------------|  \   / /  \ 
E |-----------------|----------------|----------------|----------------|   \ /     /
B |-3p0-------------|3p0-0-3p0-0-3h5-|3p0-------------|------------4---|    X     <
F#|-3p0-------------|3p0-0-3p0-0-3h5-|3p0-------------|000055553333----|   / \     \ 
B |-3p0-0-0-0-0-0-0-|3p0-0-3p0-0-3h5-|3p0-0-0-0-0-0-0-|----------------|  /   \ \__/   
PM      - - - - - -    - -   - -          - - - - - -

Both Guitars
C#|-----------------|----------------|
G#|-----------------|----------------|
E |-----------------|----------------|  Repeat once
B |-----------------|------------4---|     from ***
F#|-----------------|000055553333----|
B |-----------------|----------------|


Both Guitars
C#|-----------------|----------------|----------------|----------------|
G#|-----------------|----------------|----------------|----------------|  \  /  /|
E |-----------------|----------------|----------------|2-2------6-6----|   \/  / |
B |-3p0-------------|3p0---3p0---3h5-|3p0-------------|0-0------4-4----|   /\ |__|_ 
F#|-3p0-------------|3p0---3p0---3h5-|3p0-------------|----------------|  /  \   |
B |-3p0-------------|3p0---3p0---3h5-|3p0-------------|----------------|


Both Guitars
C#|-----------------|----------------|
G#|-----------------|----------------|   \  /   /|
E |-----------------|----------------|    \/   / |
B |-----------------|----------------|    /\  |__|_
F#|-----------------|----------------|   /  \    |
B |-7-7-7-7-7-7-7-7-|3-3-3-3-2-2-2-2-|


1st Guitar                             __
C#|-----------------|----------------|   \
G#|-00000000--------|00000000--------|   |
E |-444444445-------|444444445-------|   |
B |---------3-------|--------3-------|   |
F#|-----------------|----------------|   |          ___
B |-----------------|----------------|   |   \  /  /   \
                                          \   \/       /
2nd Guitar                                /   /\     /
C#|-----------------|----------------|   |   /  \  /____
G#|-----------------|----------------|   |
E |-----------------|----------------|   |
B |-----------------|----------------|   |
F#|-----------------|----------------|   |
B |-000011110-------|000011110-------| __/      
PM          -                -

Both Guitars
C#|-----------------|----------------|          ___
G#|-----------------|----------------|   \  /  /   \
E |-----------------|----------------|    \/       /
B |-----------------|----------------|    /\     /
F#|-----------------|----------------|   /  \  /____
B |-000011110-------|000011110-------|
PM          -                -

Both Guitars
C#|-----------------|
G#|-----------------|
E |-----------------|
B |-0---------------|
F#|-0---------------|
B |-0---------------|
PM  -        
 
:: Ultimate Guitar Archive :: 
http://www.ultimate-guitar.com 

Comments