Slipknot - Eeyore Chords & Tabs

 

Eeyore Chords & Tabs

Slipknot Chords & Tabs

Version: 1 Type: Bass Tab 0 ratings
1 star 2 stars 3 stars 4 stars 5 stars
comments

Eeyore Bass Tab

   
Eeyore

Tuning (low to high) BF#BE
The bits with ** underneath are palm muted.
This looks disjointed as I'm doing it from
memory
Email me with any complaints.
emfusionuk@yahoo.co.uk


E  -4445---4445---4445---4445---4445---4445-|
B  -0003---0003---0003---0003---0003---0003-|
F# -----------------------------------------|
B  -----------------------------------------|

E  -4445---4445---4445---4445---4445---4445-|
B  -0003---0003---0003---0003---0003---0003-|
F# -----------------------------------------|
B  -----------------------------------------|

E  -------------------------------------------|
B  -777777777777777-33333-222222-777777777777-|
F# -777777777777777-33333-222222-777777777777-|
B  -777777777777777-33333-222222-777777777777-|

E  --------------|
B  -33333-222222-|
F# -33333-222222-|
B  -33333-222222-|

E  ---------------------------------------------|
B  ---------------------------      Play this 7-|
F# ---------------------------------------------|        times
B  -77777777777777-33333-22222------------------|

E  --------------------------------------------|
B  -0----------------------0-----------------3-|
F# -0----------------------0--------------5-3--|
B  -0-00000000-3p0-3p0-3p0-0-0000000000-3------|
      ********               **********

E  --------------------------------------------|
B  -0----------------------0-----------------3-|
F# -0----------------------0--------------5-3--|
B  -0-00000000-3p0-3p0-3p0-0-0000000000-3------|
      ********               **********

E  -----------------|
B  ---------------3-|
F# -----------5-3---|
B  ---------3-------|
[ Tab from: http://www.guitartabs.cc/tabs/s/slipknot/eeyore_btab.html ]
E  ----------------------------------|
B  -0-----3p0-3p0-3p0-3p0----------3-|
F# -0-00--3p0-3p0-3p0-3p0-00---5-3---|
B  -0-00--3p0-3p0-3p0-3p0-00-3-------|
      **                  **

E  ----------------------------------|
B  -0-----3p0-3p0-3p0-3p0----------3-|
F# -0-00--3p0-3p0-3p0-3p0-00---5-3---|
B  -0-00--3p0-3p0-3p0-3p0-00-3-------|
      **                  **

E  -------------------------------------------|
B  -777777777777777-33333-222222-777777777777-|
F# -777777777777777-33333-222222-777777777777-|
B  -777777777777777-33333-222222-777777777777-|

E  --------------|
B  -33333-222222-|
F# -33333-222222-|
B  -33333-222222-|

E  -------------------------------------------|
B  -777777777777777-33333-222222-777777777777-|
F# -777777777777777-33333-222222-777777777777-|
B  -777777777777777-33333-222222-777777777777-|

E  --------------|
B  -33333-222222-|
F# -33333-222222-|
B  -33333-222222-|

E  -------------------------------------------|
B  -777777777777777-33333-222222-777777777777-|
F# -777777777777777-33333-222222-777777777777-|
B  -777777777777777-33333-222222-777777777777-|

E  --------------|
B  -33333-222222-|
F# -33333-222222-|
B  -33333-222222-|

E  -------------------------------------------|
B  -777777777777777-33333-222222-777777777777-|
F# -777777777777777-33333-222222-777777777777-|
B  -777777777777777-33333-222222-777777777777-|

E  --------------|
B  -33333-222222-|
F# -33333-222222-|
B  -33333-222222-|

E  ------------------------------------------|
B  --0000000-1-0000000000-1-000000000-1---0--|
F# --0000000-1-0000000000-1-000000000-1---0--|
B  --0000000-1-0000000000-1-000000000-1---0--|
Comments