Slipknot - Duality Chords & Tabs

 

Duality Chords & Tabs

Slipknot Chords & Tabs

Version: 2 Type: Tab 2 ratings
1 star 2 stars 3 stars 4 stars 5 stars
comments

Duality Tab

Gtr 1 Riff 1
|--------------------------------------------------|
|--------------------------------------------------|      
|--------------------------------------------------|
|--------------------------------------------------|  X2
|--------------------------------------------------|
|-0-0-0-0-0-0-0-0-0--3-3-3-3-3-3-3---/6\1-1-1-1-1--|  
 

Gtr 1&2 Riff 2
|-------------------------------------------------|
|-------------------------------------------------|
|-------------------------------------------------|    X2
|-------------------------------------------------|  
|-0-0-0-0-0-0-0-0-0--3-3-3-3-3-3-3---/6\1-1-1-1-1-|  
|-0-0-0-0-0-0-0-0-0--3-3-3-3-3-3-3---/6\1-1-1-1-1-|

Gtr 1&2  Riff 3
|----------------------------------|
|----------------------------------|
|----------------------------------|
|-0-0-0---0-0---0-0-0--0-1-0-3-----|
|-0-0-0---0-0---0-0-0--0-1-0-3-3*B-|
|-0-0-0---0-0---0-0-0--0-1-0-3-----|
  . . .   . .   . . .  . . . .

Gtr 1&2  Riff 4
|----------------------------------|
|----------------------------------|
|----------------------------------|
|-0-0-0---0-0---0-0-0--0-1-0-1-----|
|-0-0-0---0-0---0-0-0--0-1-0-1-----|
|-0-0-0---0-0---0-0-0--0-1-0-1--3*-|
  . . .   . .   . . .  . . . .

Gtr1  Riff 5A
|-----------------------------|
|-----------------------------|
|-----------------------------|
|-----------------------------|
|-----------------------------|
|-7T--10T--5T--7T--3T--5T--1T-|
  .    .   .   .   .   .   .
Gt1  Riff 5B
|-----------------------------|
|-----------------------------|
|-----------------------------|
|-----------------------------|
|-----------------------------|
|-7T--10T--5T--7T--3T--5T--0T-|
  .    .   .   .   .   .   .

Gtr2 does some *** Riff 6

[ Tab from: http://www.guitartabs.cc/tabs/s/slipknot/duality_tab_ver_2.html ]
gtr 1&2 Riff 7
|-----------------------------------|
|-----------------------------------|
|-----------------------------------|
|-3-3-3-3--3-3-3-3--3-3-3-3---------|
|-3-3-3-3--3-3-3-3--3-3-3-3---------|
|-3-3-3-3--3-3-3-3--3-3-3-3--2-2-3*-|
  . . . .  . . . .  . . . .  . .

Gtr 1 Riff 8
|--------------------------------------------------|
|--------------------------------------------------|
|--------------------------------------------------|   
|-0-0-0-0-0-0-0-0-0--3-3-3-3-3-3-3---/6\1-1-1-1-1--| 
|-0-0-0-0-0-0-0-0-0--3-3-3-3-3-3-3---/6\1-1-1-1-1--|
|-0-0-0-0-0-0-0-0-0--3-3-3-3-3-3-3---/6\1-1-1-1-1--|

Gtr 2 Riff 9
|--------------------|
|--------------------|
|-0-0-3-3-3-5-5-5-8-7-|
|--------------------|
|--------------------|
|--------------------|

Riff 5A

Gtr1 Riff 10
|-------------------|
|-------------------|
|-------------------|
|-------------------|
|-------------------|
|-7T--10T--5T--7T---|
  .    .   .   .   

Riff 11
|---------|
|---------|
|---------|
|-3-5-1-0-|
|-3-5-1-0-|
|-3-5-1-0-|

Riff 5A
Riff 5B
Riff 5A & Riff 6
Riff 5B & Riff 6

Riff 7

Riff 8 & Riff 9

Riff 3
Riff 4
Riff 3
Riff 4

Gtr 1&2  Riff 12
|----------------------------------|
|----------------------------------|
|----------------------------------|
|-1-1-1---1-1---1-1-1--0-1-0-3-----|
|-1-1-1---1-1---1-1-1--0-1-0-3-3*B-|
|-1-1-1---1-1---1-1-1--0-1-0-3-----|
  . . .   . .   . . .  . . . .

Gtr 1&2  Riff 13
|----------------------------------|
|----------------------------------|
|----------------------------------|
|-1-1-1---1-1---1-1-1--0-1-0-1-----|
|-1-1-1---1-1---1-1-1--0-1-0-1-----|
|-1-1-1---1-1---1-1-1--0-1-0-1--3*-|
  . . .   . .   . . .  . . . .

Riff 7
Riff 14 Unknown????
Riff 8 & Riff 9
Riff 3
Riff 4 End
Comments