Slipknot - Duality Chords & Tabs

 

Duality Chords & Tabs

Slipknot Chords & Tabs

Version: 1 Type: Bass Tab 0 ratings
1 star 2 stars 3 stars 4 stars 5 stars
comments

Duality Bass Tab

   
Music X Tabs www.mxtabs.net/basstabs.php
artist: slipknot
song: duality
album: vol.3 (The Subliminal Verses)
Tabbed by ;jamie cushion
jamienewambitionbassist
5 string Tuning=B,E,A,D,G
4 string tuning=B,F#,B,E
*=harmonic
B=bend
/=slide up
\-slide down
>=strum note no. of times

INTRO
|-----------------------|
|-----------------------|
|-----------------------|
|-----------------------|
|-0*------3*---6\1*-----|
 
|----------------------------------------------|      
|----------------------------------------------|
|----------------------------------------------| 
|----------------------------------------------|
|-0-0-0-0-0-0-0-0-/-3-3-3-3-3-3-3-6\1-1-3-1-0--|  

PRE VERSE
|----------------------------------|
|----------------------------------|
|----------------------------------|
|------------------------------3*b-|
|-0-0-0---0-0---0-0-0--0-1-0-3-----|

|----------------------------------|
|----------------------------------|
|----------------------------------|
|----------------------------------|
|-0-0-0---0-0---0-0-0--0-1-0-1--3b-| 

VERSE
|-----------------------------| 
|-----------------------------| 
|-----------------------------|  
|-----------------------------|  
|-7>>10>>>5>>>7>>>3>>>5>>>1>0-|


PRE CHORUS
|-----------------------------------|
|-----------------------------------|
|-----------------------------------|
|-----------------------------------|
|-3-3-3-3--3-3-3-3--3-3-3-3--2-2-3--|

CHORUS
|----------------------------------------------|      
|----------------------------------------------|
|----------------------------------------------| 
|----------------------------------------------|
|-0-0-0-0-0-0-0-0-/ 3-3-3-3-3-3-3-6\1-1-3-1-0--|  

CHORUS END
|--------------------| 
|--------------------| 
|--------------------|  
|--------------------|  
|-12///3--5---1-0----|

VERSE
|-----------------------------| 
|-----------------------------| 
|-----------------------------|  
|-----------------------------|  
|-7>>10>>>5>>>7>>>3>>>5>>>1>0-|

PRE CHORUS
|-----------------------------------|
|-----------------------------------|
|-----------------------------------|
|-----------------------------------|
|-3-3-3-3--3-3-3-3--3-3-3-3--2-2-3--|
[ Tab from: http://www.guitartabs.cc/tabs/s/slipknot/duality_btab.html ]
CHORUS
|---------------------------------------------|-------------------------|   
|---------------------------------------------|-------------------------|
|---------------------------------------------|-0-3-3-3-5-5-5-8-8-8-7b--|
|---------------------------------------------|-------------------------|
|-0-0-0-0-0-0-0-0-/-3-3-3-3-3-3-3-6\1-1-3-1-0-|-0-3-3-3-5-5-5-8-8-8-7b--| 

BRIDGE RIFF 1
|----------------------------------|
|----------------------------------|
|----------------------------------|
|------------------------------3*b-|
|-0-0-0---0-0---0-0-0--0-1-0-3-----|

|----------------------------------|
|----------------------------------|
|----------------------------------|
|----------------------------------|
|-0-0-0---0-0---0-0-0--0-1-0-1--3b-|  

BRIDGE RIFF 2
|----------------------------------|
|----------------------------------|
|----------------------------------|
|------------------------------3*b-|
|-1-1-1---1-1---1-1-1--1-0-1-0-----|

|----------------------------------|
|----------------------------------|
|----------------------------------|
|----------------------------------|
|-1-1-1---1-1---1-1-1--1-0-1-0--3b-|

BRIDGE RIFF 3
|-----------------------------------|
|-----------------------------------|
|-----------------------------------|
|-----------------------------------|
|-3-3-3-3--3-3-3-3--3-3-3-3--2-2-3--|

BRIDGE END
|--------------------| 
|--------------------| 
|--------------------|  
|--------------------|  
|-7>>>10>>>>3>>>>5>>>|

CHORUS
|---------------------------------------------|------------------------|    
|---------------------------------------------|------------------------|
|---------------------------------------------|0-3-3-3-5-5-5-8-8-8-7b--|
|---------------------------------------------|------------------------|
|-0-0-0-0-0-0-0-0-/-3-3-3-3-3-3-3-6\1-1-3-1-0-|0-3-3-3-5-5-5-8-8-8-7b--| 

END RIFF 1
|----------------------------------|
|----------------------------------|
|----------------------------------|
|------------------------------3b--|
|-0-0-0---0-0---0-0-0--0-1-0-3-----|

|----------------------------------|
|----------------------------------|
|----------------------------------|
|----------------------------------|
|-0-0-0---0-0---0-0-0--0-1-0-1--3b-|  

im pretty sure this is correct. this is one of the best song ive tabbed.
Comments