Slipknot - Do Nothing Chords & Tabs

 

Do Nothing Chords & Tabs

Slipknot Chords & Tabs

Version: 1 Type: Tab 0 ratings
1 star 2 stars 3 stars 4 stars 5 stars
comments

Do Nothing Tab

Do Nothing-Bitch Slap
By Slipknot
http://www.metalindex.com/tabs/

Tuning: Dropped D then down a step (CGCFAD)

Heavy Part
~~~~~~~~~~
|------------------------------|
|------------------------------|
|------------------------------|
|--0-0-0-0-3--0-0-0-0-3--0-0-4-|
|--0-0-0-0-3--0-0-0-0-3--0-0-4-|
|--0-0-0-0-3--0-0-0-0-3--0-0-4-|
[ Tab from: http://www.guitartabs.cc/tabs/s/slipknot/do_nothing_tab.html ]
Smooth Jazz Part
~~~~~~~~~~~~~~~~
|-----------------------------------------12--15----14h12--14-12------------15--14--13--12--|
|--14--13--12--11-----------------14--13--12--15----12-12--12-12--12--11----15--14--13--12--|
|--13--12--11--10--9--10--11--12--13--12--12--15----12-12--12-12--11--10--------------------|
|------------------8---9--10--11------------------------------------------------------------|
|-------------------------------------------------------------------------------------------|
|-------------------------------------------------------------------------------------------|

|--15--16--17--18-19-20-|
|--15--16--17--18-19-20-|
|-----------------------|
|-----------------------|
|-----------------------|
|-----------------------|

Second Riff in Heavy Part
~~~~~~~~~~~~~~~~~~~~~~~~~
|-------------------|
|-------------------|
|-------------------|
|--8p7-9p8-10p9-9p8-|
|--8p7-9p8-10p9-9p8-|
|--8p7-9p8-10p9-9p8-|

Funk Part
~~~~~~~~~
|--7/8-8-x-x-4-5-4-5----7/8-8-x-x-4-x-x-4-5-| 2nd guitar strums
|--7/8-8-x-x-4-5-4-5----7/8-8-x-x-4-x-x-4-5-| the strings while
|--7/8-8-x-x-4-5-4-5----7/8-8-x-x-4-x-x-4-5-| muting them and
|-------------------------------------------| fooling around
|-------------------------------------------| with the wah
|-------------------------------------------| pedal

Other Riff of Funk Part
~~~~~~~~~~~~~~~~~~~~~~~
|--3-----3-6--8-|-5--5-|
|--3-----3-6--8-|-5--5-|
|--3-----3-6--8-|-5--5-|
|---------------|------|
|---------------|------|
|---------------|------|
Comments