Slipknot - Disasterpiece Chords & Tabs

 

Disasterpiece Chords & Tabs

Slipknot Chords & Tabs

Version: 4 Type: Tab 0 ratings
1 star 2 stars 3 stars 4 stars 5 stars
comments

Disasterpiece Tab

First Guitar

|--------------------------------------|
|--------------------------------------| 
|--------------------------------------| 
|--------------------14----------------| 
|--------------------------------------| 
|-13-12-12-12-12-12-----13-12-12-12-12-|

Second Guitar
|-----------------------------------| 
|-----------------------------------| 
|-----------------------------------| 
|-----------------14----------------| 
|-----------------------------------| 
|-13-12-12-12-12-----13-12-12-12-12-| 

Second Guitar (On 8x)
|--------------------------------------------| 
|--------------------------------------------| 
|--------------------------------------------| 
|-----------------14-------------------------| 
|------------------------------------1h3p2h4-| 
|-13-12-12-12-12-----13-12-12-12-12--1h3p2h4-|

Both Guitars
|-------------------------| 
|-------------------------| 
|-------------------------| 
|-------------------------| 
|-x-x-0-x-x-0-x-x-1h3p2h4-| 
|-x-x-0-x-x-0-x-x-1h3p2h4-|

Both Guitars
|-------------------------| 
|-------------------------| 
|-------------------------| 
|-------------------------| 
|-x-x-0-x-x-1-x-x-1h3p2h4-| 
|-x-x-0-x-x-1-x-x-1h3p2h4-|

Both Guitars
|---------------| 
|---------------| 
|---------------| 
|---------------| 
|---------------| 
|-0-0-0-1-1-1-0-|

Second Guitar
|----------------------------------|
|----------------------------------| 
|----------------------------------| 
|----------------------------------| 
|----------------------------------| 
|-0-0-0-1-1-1-0--3p2-0-4h3-0-5h4-0-|

Both Guitars
|---------------------------| 
|---------------------------| 
|---------------------------| 
|---------------------------| 
|-0-0-0-1-1-1-0-0-0-1h3p2h4-| 
|-0-0-0-1-1-1-0-0-0-1h3p2h4-|
I wanna slit your throat and fuck...

Both Guitars
|-------------------------------------------------| 
|-------------------------------------------------| 
|-----------------8-8-8-8-8-8-8-8-9-9-9-9-9-9-9-9-|
|-------------------------------------------------| 
|-------------------------------------------------| 
|-0-0-0-1-1-1-0-----------------------------------|
NO ONE IS SAAAAAFE - Noises, noises...

First Guitar
|----------------------------------| 
|----------------------------------| 
|----------------------------------| 
|----------------------------------| 
|----------------------------------| 
|-0-0-0-1-1-1-0--3p2-0-4p3-0-5p4-0-|
[ Tab from: http://www.guitartabs.cc/tabs/s/slipknot/disasterpiece_tab_ver_4.html ]
Second Guitar
|------------------------------| 
|-6-5-5-6-5-5-5--6-5-5-6-5-5-5-| 
|------------------------------| 
|------------------------------| 
|------------------------------| 
|------------------------------|

Both Guitars
|------------------------| 
|------------------------| 
|------------------------| 
|------------------------| 
|-0-0-0-1-1-1-0--1h3p2h4-| 
|-0-0-0-1-1-1-0--1h3p2h4-|

First Guitar
|--------------------| 
|--------------------| 
|--------------------| 
|--------------------| 
|--------------------| 
|-0-0-0-1-1-1-0--0-0-|

Second Guitar
|------------------------------| 
|-6-5-5-6-5-5-5--6-5-5-6-5-5-5-| 
|------------------------------| 
|------------------------------| 
|------------------------------| 
|------------------------------|

Both Guitars
|-------------------------| 
|-------------------------| 
|-------------------------| 
|-------------------------| 
|-x-x-0-x-x-1-x-x-1h3p2h4-| 
|-x-x-0-x-x-1-x-x-1h3p2h4-|
Look in my eyes for the answers - typical...

|-------------------------------------------------| 
|-------------------------------------------------| 
|-----------------8-8-8-8-8-8-8-8-9-9-9-9-9-9-9-9-|
|-------------------------------------------------| 
|-------------------------------------------------| 
|-0-0-0-1-1-1-0-----------------------------------|
NO ONE IS SAAAFE - Noises, noises...

|---| 
|---| 
|---| 
|---| 
|-0-| 
|-0-|

Second Guitar
|-----------| 
|-----------| 
|-----------| 
|-----------| 
|-0-3-5-1-6-| 
|-0-3-5-1-6-|

First Guitar
|---------| 
|-----12b-| 
|---------| 
|--9------| 
|---------| 
|---------|

Both Guitar
|--------------------| 
|----------------12b-| 
|--------------------| 
|--------------------| 
|-0-3-5-1-6-8-9------| 
|-0-3-5-1-6-8-9------|

First Guitar
|---| 
|---| 
|---| 
|---| 
|-0-| 
|-0-|

Second Guitar
|------------------------------| 
|-6-5-5-6-5-5-5--6-5-5-6-5-5-5-| 
|------------------------------| 
|------------------------------| 
|------------------------------| 
|------------------------------|

First Guitar
|---------------| 
|---------------| 
|---------------| 
|---------------| 
|---------------| 
|-0-0-0-3-3-3-2-|

First Guitar
|------------------------------| 
|------------------------------| 
|------------------------------| 
|------------------------------| 
|------------------------------| 
|-0-0-0-3-3-3-2--5-5-5-3-3-6-6-|

First Guitar
|--------------| 
|--------------| 
|--------------| 
|--------------| 
|--------------| 
|-0-3-2--5-3-6-|

Both Guitar
|--------------------| 
|----------------12b-| 
|--------------------| 
|--------------------| 
|-0-3-5-1-6-8-9------| 
|-0-3-5-1-6-8-9------|
Comments