Slipknot - Disasterpiece Chords & Tabs

 

Disasterpiece Chords & Tabs

Slipknot Chords & Tabs

Version: 3 Type: Tab 0 ratings
1 star 2 stars 3 stars 4 stars 5 stars
comments

Disasterpiece Tab

   
Disaster Piece-Slipknot
Iowa

Drop B
B F# B E G# C#

( )=harmonics

Riff A x16

e----------------------------------------------------
b--------------------------4-------------------------
g----------------------------------------------------
d----------------------------------------------------
a----------------------------------------------------
d(3)-(2.3)--(2)--(2.6)-(3)-----(3)-(2.3)-(2)-(3)-----

gtr 2. comes in 5th time

e------------------------------------------------------
b------------------------------------------------------
g--------------14~~------------------------------13~~--
d------------------------------------------------------
a--------------12~~------------------------------11~~--
d-0-0--0---0-0------0-0-0-0-2-0-3-1-0-0--0---0-0-------

e------------------------------------------------------
b------------------------------------------------------
g------------------------------14----------------------
d------------------------------------------------------
a------------------------------12~~--------------------
d-0-0-0-0-3-0-3-1-0-0--0---0-0------0-0-0-0-2-0-3-1----

e------------------------------------------------------
b------------------------------------------------------
g--------------14----------------14---------------13---
d------------------------------------------------------
a--------------12~~--------------12\--------------11~~-
d-0-0--0---0-0------0-0--0---0-0-----0-0--0---0-0------

e------------------------------------------------------
b------------------------------------------------------
g------------------------------------------------------
d------------------------------------------------------
a------------------------------11~~--------------------
d-0-0-0h2-2p0-3p1-0-0--0---0-0------0-0-0h2-2p0-3p1----

x5
e------------------------------------------------------
b------------------------------------------------------
g--------------13/14-----------------------------------
d------------------------------------------------------
a--------------11/12-----------------------------------
d-0-0--0---0-0----------0-0-0h2-2p0-3p1----------------

e------------------------------------------------------
b------------------------------------------------------
g--------------13/14-----------------------------------
d------------------------------------------------------
a--------------11/12-----------------------------------
d-0-0--0---0-0-------x-xx-x-xx-xxx\\\-x-x-x-x----------

both gtrs
x4
e------------------------------------------------------
b------------------------------------------------------
g------------------------------------------------------
d------------------------------------------------------
a------------------------------------------------------
d-0-0--0---1-1--1--0-0-0h2-2p0-3p1---------------------

Fig 1.
x4
e------------------------------------------------------
b------------------------------------------------------
g------------------------------------------------------
d------------------------------------------------------
a------0--------1------0-2-2-0-3-1---------------------
d-0-0--0---1-1--1--0-0-0-2-2-0-3-1---------------------

Riff B Verse
[ Tab from: http://www.guitartabs.cc/tabs/s/slipknot/disasterpiece_tab_ver_3.html ]
e------------------------------------------------------
b------------------------------------------------------
g------------------------------------------------------
d------------------------------------------------------
a------------------------------------------------------
d-0-0-0-1-1-1-0-----2p1-0-3p1-4p1----------------------

Chorus

e------------------------------------------------------
b------------------------------------------------------
g----------------------333333333-444444444-------------
d------------------------------------------------------
a-0-0-0-1-1-1-0--------1-------------------------------
d-0-0-0-1-1-1-0------------------111111111-------------

Interlude:

e-0---0-0---0-0-----0---0-0---0------------------------
b-6\5-5-6\5-5-5-----6\5-5-8\6-6\5----------------------
g------------------------------------------------------
d------------------------------------------------------
a------------------------------------------------------
d------------------------------------------------------

Verse 2

e------------------------------------------------------
b------------------------------------------------------
g------------------------------------------------------
d------------------------------------------------------
a------------------------------------------------------
d-1-1-1-2-2-2-1-------2p1-0-3p1-4p1--------------------

Bridge:

e------------------------------------------------------
b------------------------------------------------------
g------------------------------------------------------
d------------------------------------------------------
a-(2)b-r--0--3--4--1-----------------------------------
d---------0--3--4--1--6666-8888-9\---------------------

...hate !   hate ainít enough...

e------------------------------------------------------
b------------------------------------------------------
g------------------------------------------------------
d------------------------------------------------------
a-9\--0--3--4--1--/6--8--9--9\--0--3--4--1--/6--8--9---
d-9\--0--3--4--1--/6--8--9--9\--0--3--4--1--/6--8--9---

Interlude/Bridge

e------------------------------------------------------
b------------------------------------------------------
g------------------------------------------------------
d------------------------------------------------------
a------------------------------------------------------
d-0-0-0-3-3-3-2---------------0-0-0-3-3-3-2------------

e-----------------------------------------------------------------
b-----------------------------------------------------------------
g-----------------------------------------------------------------
d-----------------------------------------------------------------
a-----------------------------------------------------------------
d-0-0-0-3-3-3-2----5-5-5-3-3-6-6-0-0-0-3-3-3-2----5-5-5-3-3-6-6---

e-----------------------------------------------------------------
b-----------------------------------------------------------------
g-----------------------------------------------------------------
d-----------------------------------------------------------------
a-----------------------------------------------------------------
d-0-0-0-3-3-3-2-2-2-5-5-5-3-3-6-6-0-0-0-3-3-3-2-2-2-5-5-3-3-6-6---

trevor jones
timmy91199@yahoo.ca
Comments