Slipknot - Disasterpiece Chords & Tabs

 

Disasterpiece Chords & Tabs

Slipknot Chords & Tabs

Version: 1 Type: Tab 0 ratings
1 star 2 stars 3 stars 4 stars 5 stars
comments

Disasterpiece Tab

   
BITCHIN' TABS

          URL: www.angelfire.com/goth/btab/
	EMAIL: btabmaster@hotmail.com

        THIS IS AN EXCLUSIVE TAB TO "BITCHIN' TABS"

 ----------------------------------------------------------------------------------------------

	     SONG: Disasterpiece
	     BAND: Slipknot
	    ALBUM: IOWA
   TRANSCRIBED BY: Chris Frazier (btabmaster@hotmail.com)
	     DATE: 09-03-2K1

 ----------------------------------------------------------------------------------------------

	TUNING: Drop D and down 1 and 1/2 step (B F# B E G# C#)

     Riff 1: (phaser, flanger, other weird stuff...)
    C#|----------------------------------|
    G#|----------------------------------|
    E |----------------------------------|
    B |-------------------14-------------|
    F#|----------------------------------|
    B |-13-12-12-12-12-12----13-12-12-12-|

     Riff 2:
    C#|------------------------|---------|
    G#|------------------------|---------|
    E |------------------------|---------|
    B |-x-x-0-x-x-1b-x-x-0-x-x-|-1h4p3p1-|
    F#|-x-x-0-x-x----x-x-0-x-x-|-1h4p3p1-|
    B |-x-x-0-x-x----x-x-0-x-x-|-1h4p3p1-|

     Riff 3:
    C#|---------------------------|
    G#|---------------------------|
    E |---------------------------|
    B |-x-x-0-x-x-1-x-x-0-1h4p3p1-|
    F#|-x-x-0-x-x-1-x-x-0-1h4p3p1-|
    B |-x-x-0-x-x-1-x-x-0-1h4p3p1-|
[ Tab from: http://www.guitartabs.cc/tabs/s/slipknot/disasterpiece_tab.html ]
     Riff 4:
    C#|-------------------------------------------------------------------------|
    G#|-------------------------------------------------------------------------|
    E |-------------------------------------------------------------------------|
    B |-------------------------------------------------------------------------|
    F#|-------------------------------------------------------------------------|
    B |-0-0-0-1-1-1-0--2-1-0--2-1-0-0--2-1-0-2-1-0h1-2-1-0-2-1-0-0--2-1-0-2-1-0-|
     PM                             -              -             -

     Riff 5:
    C#|---------------------------------|
    G#|---------------------------------|
    E |---------------------------------|
    B |-0-0-0-0-1-1-1-1-0-0-0-0-1h4p3p1-|
    F#|-0-0-0-0-1-1-1-1-0-0-0-0-1h4p3p1-|
    B |-0-0-0-0-1-1-1-1-0-0-0-0-1h4p3p1-|

     Riff 6:
    C#|---------------------------------------------|
    G#|---------------------------------------------|
    E |---------------------------------------------|
    B |-8-8-8-8-8-8-8-8-9-9-9-9-9-9-9-9-------------|
    F#|---------------------------------------------|
    B |---------------------------------0-0-1-1-0---|

     Riff 7:
    C#|------------------------------|
    G#|-6-5-5-6-5-5-5--6-5-5-6-5-5-5-|
    E |------------------------------|
    B |------------------------------|
    F#|------------------------------|
    B |------------------------------|
     PM            -               -

     Riff 8:
    C#|--------|
    G#|--------|
    E |--------|
    B |-0------|
    F#|-0------|
    B |-0------|

     Riff 9:
    C#|-------------------|
    G#|---------------12b-|
    E |-------------------|
    B |-----------999-----|
    F#|-------------------|
    B |-0-3-5-0-7---------|
     PM - - - - -

     Riff 10:
    C#|-------------------|
    G#|---------------12b-|
    E |-------------------|
    B |-0-3-5-0-7-8-9-----|
    F#|-0-3-5-0-7-8-9-----|
    B |-0-3-5-0-7-8-9-----|
Comments