Slipknot - Disasterpiece Chords & Tabs

 

Disasterpiece Chords & Tabs

Slipknot Chords & Tabs

Version: 3 Type: Bass Tab 0 ratings
1 star 2 stars 3 stars 4 stars 5 stars
comments

Disasterpiece Bass Tab

Music X Tabs [http://www.mxtabs.net]
SLIPKNOT
DISASTERPIECE
IOWA
tabbed by:jamie cushion
modus operandi

INTRO      
-----------------------|---------------------------------|
-----------------------|---------------------------------|
-----------------------|---------------------------------|
--0-0-0----0-0-0-12----|--0-0-0--0-0-0--0-0-0H2-2R0-3H1--|

-------------|
-------------|
-------------|
-------------|
--000-111-0--|
           
VERSE   
---------------------------------------------|             
---------------------------------------------|
---------------------------------------------|
---------------------------------------------|
--(0/5-0/7\1)--0-0-0-1-1-1-0--2H1-0-3H1-4H1--|

CHORUS
-----------------|------------------------------------------------|
-----------------|------------------------------------------------|
-----------------|------------------------------------------------|
-----------------|------------------------------------------------|
--0-0-0-1-1-1-0--|--888888888888-111111111111-00000-11111-88888---|

VERSE  
---------------------------------------------|            
---------------------------------------------|
---------------------------------------------|
---------------------------------------------|
--(0/5-0/7\1)--0-0-0-1-1-1-0--2H1-0-3H1-4H1--|
[ Tab from: http://www.guitartabs.cc/tabs/s/slipknot/disasterpiece_btab_ver_3.html ]
CHORUS
-----------------|------------------------------------------------|
-----------------|------------------------------------------------|
-----------------|------------------------------------------------|
-----------------|------------------------------------------------|
--0-0-0-1-1-1-0--|--888888888888-111111111111-00000-11111-88888---|
 
BRIDGE 
-------------|----------------------|
-------------|----------------------|
-------------|----------------------|
-------------|----------------------|
--0-0-1-0-0--|--0-0-3-4--1-/6-8-9\--|

----------------------|
----------------------|
----------------------|
----------------------|
--X-0-3-4--1-/6-8-9\--|
   
---------------------------------------|-----------------|                 
---------------------------------------|-----------------|
---------------------------------------|-----------------|
---------------------------------------|-----------------|
--7-12--7/9--12\9--11\7--9\5--7\3--5\1-|--0-0-0-3-3-3-2--|

------------------------------------|
------------------------------------|
------------------------------------|
------------------------------------|
-(5\0)-0-0-0-3-3-3-2-5-5-5-3-3-6-6--|
                  
OUTRO 
--------------------------------|      
--------------------------------|
--------------------------------|
--------------------------------|
--(7-12\0)--X-0-3-4--1-/6-8-9\--|

-------------------------------|
-------------------------------|
-------------------------------|
-------------------------------|
--(5/9\0)--0-0-3-4--1-/6-8-9\--|
Comments