Slipknot - Disasterpiece Chords & Tabs

 

Disasterpiece Chords & Tabs

Slipknot Chords & Tabs

Version: 1 Type: Bass Tab 0 ratings
1 star 2 stars 3 stars 4 stars 5 stars
comments

Disasterpiece Bass Tab

-------------------------------------------------------------------------------
			     DISASTERPIECE - Slipknot
-------------------------------------------------------------------------------

Tabbed By : Chris Cyhan
e-mail: chris.cyhan@luminar.co.uk

RIFF #1:

G|---------------------------------------------------------------------------|
D|---------------------------------------------------------------------------|
A|---------------------------------------------------------------------------|
E|---------------------------------------------------------------------------|
B|-000-111-0000--------------------------------------------------------------|

RIFF #2:

G|---------------------------------------------------------------------------|
D|---------------------------------------------------------------------------|
A|---------------------------------------------------------------------------|
E|---------------------------------------------------------------------------|
B|-000-111-0-3-2-0-2-0-5-----------------------------------------------------|

RIFF #3:

G|---------------------------------------------------------------------------|
D|---------------------------------------------------------------------------|
A|---------------------------------------------------------------------------|
E|---------------------------------------------------------------------------|
B|-000-111-0-----------------------------------------------------------------|

Repeat Riff #2 for Verse

RIFF #4: Chorus Part I

G|---------------------------------------------------------------------------|
D|---------------------------------------------------------------------------|
A|---------------------------------------------------------------------------|
E|-33333333-44444444---------------------------------------------------------|
B|---------------------------------------------------------------------------|

RIFF #5: Chorus Part II

G|---------------------------------------------------------------------------|
D|---------------------------------------------------------------------------|
A|---------------------------------------------------------------------------|
E|-------0-------------------------------------------------------------------|
B|-0-1-0---------------------------------------------------------------------|

(Play part I 3 times and then part II once)
[ Tab from: http://www.guitartabs.cc/tabs/s/slipknot/disasterpiece_btab.html ]
Repeat Riff #2 for Verse

Repeat Riff #4 and #5

Riff #6: Interlude

G|---------------------------------------------------------------------------|
D|---------------------------------------------------------------------------|
A|---------------------------------------------------------------------------|
E|---------------1-----------------------------------------------------------|
B|-5-0-1-3-0-1-3-------------------------------------------------------------|

Riff #7: Play after Interlude (once only)

G|---------------------------------------------------------------------------|
D|---------------------------------------------------------------------------|
A|---------------------------------------------------------------------------|
E|---1/7---------------------------------------------------------------------|
B|-0-------------------------------------------------------------------------|

(Let B string ring as long as possible. Play E string whilst B string is ringing.
The sound is what you hear on the CD if you listen closely).

Riff #8: Bridge part I

G|---------------------------------------------------------------------------|
D|---------------------------------------------------------------------------|
A|---------------------------------------------------------------------------|
E|---------------------------------------------------------------------------|
B|-000-333-2-----------------------------------------------------------------|

Riff #9: Bridge part II

G|---------------------------------------------------------------------------|
D|---------------------------------------------------------------------------|
A|---------------------------------------------------------------------------|
E|---------------------------------------------------------------------------|
B|-0000-33-222222-33-5-------------------------------------------------------|

Repeat Riff #6

Riff #10: Outro

G|---------------------------------------------------------------------------|
D|---------------------------------------------------------------------------|
A|---------------------------------------------------------------------------|
E|---------------1-----------------------------------------------------------|
B|-0-0-1-3-0-1-3-------------------------------------------------------------|

There you go. It is an easy tab to pick up. You just need to listen to the CD a
couple of times to get the timing.
Comments