Slipknot - Diluted Chords & Tabs

 

Diluted Chords & Tabs

Slipknot Chords & Tabs

Version: 1 Type: Tab 0 ratings
1 star 2 stars 3 stars 4 stars 5 stars
comments

Diluted Tab

   
Diluted-Slipknot
Slipknot

Drop B:
B F# B E G# C#

( ) = harmonics


Intro: Fig 1.

e-----------------------------------------------------------------
b-----------------------------------------------------------------
g-----------------------------------------------------------------
d-----------------------------------------------------------------
a-0-1---0-1---0-1---0-------------0-1---0-1---0-1---0-------------
d-0-1---0-1---0-1---0-1b~~~~~~~r--0-1---0-1---0-1---0-1b~~~~~~~r--

e-----------------------------------------------------------------
b-----------------------------------------------------------------
g-----------------------------------------------------------------
d-----------------------------------------------------------------
a-0-1---0-1---0-1---0-------------0-1---0-1---0-1---0-------------
d-0-1---0-1---0-1---0-1b~~~~~~~r--0-1---0-1---0-1---0-1b~~~~~~~r--

Gtr 2.

e-----------------------------------------------------------------
b-----------------------------------------------------------------
g-----------------------------------------------------------------
d-----------------------------------------------------------------
a---------------------1----1--------------------------------------
d---------------------1----1--------------------------------------

Gtr 1&2. x4

e-----------------------------------------------------------------
b-----------------------------------------------------------------
g-----------------------------------------------------------------
d-----------------------------------------------------------------
a-0-1---0-1---0-1---0-------------0-1---0-1---0-1---0-------------
d-0-1---0-1---0-1---0-1b~~~~~~~r--0-1---0-1---0-1---0-1b~~~~~~~r--

then

e-----------------------------------------------------------------
b-----------------------------------------------------------------
g-----------------------------------------------------------------
d-----------------------------------------------------------------
a-0-1---0-1---0-1---0---------------------------------------------
d-0-1---0-1---0-1---0-1/8~~~~~~~~~~~~~~~~-------------------------

e-----------------------------------------------------------------
b-----------------------------------------------------------------
g-----------------------------------------------------------------
d------------------------x\\~~~~~----------------------x\\~~~~----
a-----------------------------------------------------------------
d-----------------------------------------------------------------

Pre Verse: Riff A x2

pm
e-----------------------------------------------------------------
b-----------------------------------------------------------------
g-----------------------------------------------------------------
d-----------------------------------------------------------------
a-----------------------------------------------------------------
d-1----1----1----1----1----1----1----1----1----1----0----0----0---

then
[ Tab from: http://www.guitartabs.cc/tabs/s/slipknot/diluted_tab.html ]
e-----------------------------------------------------------------
b-----------------------------------------------------------------
g-----------------------------------------------------------------
d-----------------------------------------------------------------
a-----------------------------------------------------------------
d-1----1----1----1------------------------------------------------

Verses: Fig 1 x4

Pre Chorus: Riff B

e-----------------------------------------------------------------
b-----------------------------------------------------------------
g-----------------------------------------------------------------
d-----------------------------------------------------------------
a-1-1-1-1-1-1-1-1-1-1-1-1-1-1-1b-1b-1b-1b-1b-1b-1b-1b-1b-1b-1b-1b-
d-----------------------------------------------------------------

e-----------------------------------------------------------------
b-----------------------------------------------------------------
g-----------------------------------------------------------------
d-----------------------------------------------------------------
a-1b-1b-1b-1b-1b-1b-1b-1b-1b-1b-1b-1b--1b-1b-1b-1b-1b-1b-1b-1b-1b-
d-----------------------------------------------------------------

Chorus: Fig 2. x4

e-----------------------------------------------------------------
b-----------------------------------------------------------------
g-----------------------------------------------------------------
d-----------------------------------------------------------------
a-2---------1-------2-----1/2----2---------1-------2-----1/2------
d-2---------1-------2-----1/2----2---------1-------2-----1/2------

then

e-----------------------------------------------------------------
b-----------------------------------------------------------------
g-----------------------------------------------------------------
d-----------------------------------------------------------------
a-2---------------------------------------------------------------
d-2---------------------------------------------------------------

Bridge: Fig 3. x4

e-----------------------------------------------------------------
b-----------------------------------------------------------------
g-----------------------------------------------------------------
d-----------------------------------------------------------------
a-2------1----2-----2----1-----2------1----2-----2----1-----------
d-2------1----2-----2----1-----2------1----2-----2----1-----------

then fill

e-----------------------------------------------------------------
b-----------------------------------------------------------------
g-----------------------------------------------------------------
d------------(5)------(5)-(5)-(5)------(5)-(5)--------------------
a------------(5)------(5)-(5)-(5)------(5)-(5)-----3--1-----------
d-(5)-(5)------------------------------------------3--1-----------

Fig 3. x3
then go back to the chorus

Outro:

pm
e-----------------------------------------------------------------
b-----------------------------------------------------------------
g-----------------------------------------------------------------
d-----------------------------------------------------------------
a-----------------------------------------------------------------
d-1----1----1----1----1----1----1----1----1----1----0----0----0---

pm
e-----------------------------------------------------------------
b-----------------------------------------------------------------
g-----------------------------------------------------------------
d-----------------------------------------------------------------
a-----------------------------------------------------------------
d-1----1----1----1----1----1----1----1----1----1--0---0-----------

thatís all

trevor jones
timmy9119@yahoo.ca
Comments