Slipknot - Dead Memories Chords & Tabs

 

Dead Memories Chords & Tabs

Slipknot Chords & Tabs

Version: 4 Type: Bass Tab 0 ratings
1 star 2 stars 3 stars 4 stars 5 stars
comments

Dead Memories Bass Tab

   
Slipknot - Dead Memories (Bass Tab)

Tuning: Drop B (B, F#, B, E)

This is my first tab so I'm sorry for any mistakes. Feel free to correct me in the 
comments section.


Introduction

E |----------------------------------|
B |----------------------------------|
F#|----------------------------------|
B |-/12\-5---8---6---5-5-5-5-5-5-5-5-|
                                        
E |---------------------------------|---------------------------------|
B |---------------------------------|---------------------------------|
F#|---------------------------------|---------------------------------|
B |-5-5-5-8-8-8-6-6-5-5-5-5-5-5-5-5-|-5-5-5-8-8-8-6-6-5-5-5-5-5-5-5-5-|

E |---------------------------------|
B |---------------------------------|
F#|---------------------------------|
B |-5-5-5-6-6-6-8-8-5-5-5-5-5-5-5-5-|

E |-------------------------------------------------|
B |-------------------------------------------------|
F#|-------------------------------------------------|
B |-5-5-5-8-8-8-6-6-5-5-5-5-5-5-5-5-5-5-5-5-5-5-8-6-|

Verse 1
                   
E |---------------------------------|---------------------------------|
B |---------------------------------|---------------------------------|
F#|---------------------------------|---------------------------------|
B |-5-5-5-8-8-8-6-6-5-5-5-5-5-5-5-5-|-5-5-5-8-8-8-6-6-5-5-5-5-5-5-5-5-|

E |---------------------------------|---------------------------------|
B |---------------------------------|---------------------------------|
F#|---------------------------------|---------------------------------|
B |-5-5-5-6-6-6-8-8-5-5-5-5-5-5-5-5-|-5-5-5-8-8-8-6-6-5-5-5-5-5-5-5-5-|

E |---------------------------------|---------------------------------|
B |---------------------------------|---------------------------------|
F#|---------------------------------|---------------------------------|
B |-5-5-5-8-8-8-6-6-5-5-5-5-5-5-5-5-|-5-5-5-8-8-8-6-6-5-5-5-5-5-5-5-5-|

E |---------------------------------|---------------------------------|
B |---------------------------------|---------------------------------|
F#|---------------------------------|---------------------------------|
B |-5-5-5-6-6-6-8-8-5-5-5-5-5-5-5-5-|-5-5-5-8-8-8-6-6-5-5-5-5-5-5-5-5-|

Pre-chorus

E |-------------------------------------------------------------------|
B |-------------------------------------------------------------------|
F#|-------------------------------------------------------------------|
B |-5-8-7-3---0-0-0-0-6-6-6-6-6-6-6---5-8-7-3---0-0-0-0-6-6-6-6-6-6-6-|

E |-------------------------------------------------------------------|
B |-------------------------------------------------------------------|
F#|-------------------------------------------------------------------|
B |-5-8-7-3---0-0-0-0-6-6-6-6-6-6-6---5-8-7-3---0-0-0-0-6-6-6-6-6-6-6-|

Chorus 

E |-------------------------------------------------------------------------|
B |-------------------------------------------------------------------------|
F#|-------------------------------------------------------------------------|
B |-5-5-5-5-5-5-5-5-8-8-8-8-8-8-8-8-0-0-0-0-0-0-0-0-10-10-10-10-10-10-10-10-|


E |-------------------------------------------------------------------|
B |-------------------------------------------------------------------|
F#|-------------------------------------------------------------------|
B |-5-5-5-5-5-5-5-5-8-8-8-8-8-8-8-8--3-3-3-2-(2-2-2)--1-1-1-0-(0-0-0)-|

Pre-Verse

E |---------------------------------|
B |---------------------------------|
F#|---------------------------------|
B |-5-5-5-8-8-8-6-6-5-5-5-5-5-5-5-5-|

E |----------------------------------------------------|
B |----------------------------------------------------|
F#|----------------------------------------------------|
B |-5-5-5-8-8-8-6-6-5-5-5-5-5-5-5-5-5-5-5-5-5-5-5(br)--|

Verse 2

E |---------------------------------|---------------------------------|
B |---------------------------------|---------------------------------|
F#|---------------------------------|---------------------------------|
B |-5-5-5-8-8-8-6-6-5-5-5-5-5-5-5-5-|-5-5-5-8-8-8-6-6-5-5-5-5-5-5-5-5-|

E |---------------------------------|---------------------------------|
B |---------------------------------|---------------------------------|
F#|---------------------------------|---------------------------------|
B |-5-5-5-6-6-6-8-8-5-5-5-5-5-5-5-5-|-5-5-5-8-8-8-6-6-5-5-5-5-5-5-5-5-|

Pre-chorus

E |-------------------------------------------------------------------|
B |-------------------------------------------------------------------|
F#|-------------------------------------------------------------------|
B |-5-8-7-3---0-0-0-0-6-6-6-6-6-6-6---5-8-7-3---0-0-0-0-6-6-6-6-6-6-6-|
[ Tab from: http://www.guitartabs.cc/tabs/s/slipknot/dead_memories_btab_ver_4.html ]
E |-------------------------------------------------------------------|
B |-------------------------------------------------------------------|
F#|-------------------------------------------------------------------|
B |-5-8-7-3---0-0-0-0-6-6-6-6-6-6-6---5-8-7-3---0-0-0-0-6-6-6-6-6-6-6-|

Chorus

E |-------------------------------------------------------------------------|
B |-------------------------------------------------------------------------|
F#|-------------------------------------------------------------------------|
B |-5-5-5-5-5-5-5-5-8-8-8-8-8-8-8-8-0-0-0-0-0-0-0-0-10-10-10-10-10-10-10-10-|

E |------------------------------------------------------------------|
B |------------------------------------------------------------------|
F#|------------------------------------------------------------------|
B |-5-5-5-5-5-5-5-5-8-8-8-8-8-8-8-8--3-3-3-2-(2-2-2)--1-1-1-0-(0-0-0)|

E |-------------------------------------------------------------------------|
B |-------------------------------------------------------------------------|
F#|-------------------------------------------------------------------------|
B |-5-5-5-5-5-5-5-5-8-8-8-8-8-8-8-8-0-0-0-0-0-0-0-0-10-10-10-10-10-10-10-10-|

E |-------------------------------------------------------------------|
B |-------------------------------------------------------------------|
F#|-------------------------------------------------------------------|
B |-5-5-5-5-5-5-5-5-8-8-8-8-8-8-8-8--3-3-3-2-(2-2-2)--1-1-1-0-(0-0-0)-|

Bridge

E |-----------------------------------------------------------------------|
B |-------------------------0-0---0-0---0---0-0---0-0---0---0-0---0-0---0-|
F#|-----------------------------------------------------------------------|
B |-5-8-6--5-5-5--5-8-6---5-----5-----5---5-----5-----5---5-----5-----5---|

E |-----------------|
B |---0-0---0-0---0-|
F#|-----------------|
B |-5-----5-----5---|

Solo

E |-------------------------------------------------------------------|
B |-------------------------------------------------------------------|
F#|-------------------------------------------------------------------|
B |-5-8-7-3---0-0-0-0-6-6-6-6-6-6-6---5-8-7-3---0-0-0-0-6-6-6-6-6-6-6-|

E |-------------------------------------------------------------------|
B |-------------------------------------------------------------------|
F#|-------------------------------------------------------------------|
B |-5-8-7-3---0-0-0-0-6-6-6-6-6-6-6---5-8-7-3---0-0-0-0-6-6-6-6-6-6-6-|

E |-----------------------------------------------------|
B |-----------------------------------------------------|
F#|-----------------------------------------------------|
B |-5----8----0----10----5----8----0----10----5----8----|

E |----------------------------------|
B |----------------------------------|
F#|----------------------------------|
B |-3-3-3-2-(2-2-2)--1-1-1-0-(0-0-0)-|

Chorus

E |-------------------------------------------------------------------------|
B |-------------------------------------------------------------------------|
F#|-------------------------------------------------------------------------|
B |-5-5-5-5-5-5-5-5-8-8-8-8-8-8-8-8-0-0-0-0-0-0-0-0-10-10-10-10-10-10-10-10-|

E |------------------------------------------------------------------|
B |------------------------------------------------------------------|
F#|------------------------------------------------------------------|
B |-5-5-5-5-5-5-5-5-8-8-8-8-8-8-8-8--3-3-3-2-(2-2-2)--1-1-1-0-(0-0-0)|

E |-------------------------------------------------------------------------|
B |-------------------------------------------------------------------------|
F#|-------------------------------------------------------------------------|
B |-5-5-5-5-5-5-5-5-8-8-8-8-8-8-8-8-0-0-0-0-0-0-0-0-10-10-10-10-10-10-10-10-|

E |------------------------------------------------------------------|
B |------------------------------------------------------------------|
F#|------------------------------------------------------------------|
B |-5-5-5-5-5-5-5-5-8-8-8-8-8-8-8-8--3-3-3-2-(2-2-2)--1-1-1-0-(0-0-0)|

E |-------------------------------------------------------------------------|
B |-------------------------------------------------------------------------|
F#|-------------------------------------------------------------------------|
B |-5-5-5-5-5-5-5-5-8-8-8-8-8-8-8-8-0-0-0-0-0-0-0-0-10-10-10-10-10-10-10-10-|

E |------------------------------------------------------------------|
B |------------------------------------------------------------------|
F#|------------------------------------------------------------------|
B |-5-5-5-5-5-5-5-5-8-8-8-8-8-8-8-8--3-3-3-2-(2-2-2)--1-1-1-0-(0-0-0)|


Key

/ = slide up
\ = slide down
() = optional
br = bend then release


Enjoy!

Tabbed By Chris Sandham

e-mail: chrissandham16@gmail.com - feel free to contact me.
Comments