Slipknot - Danger Keep Away Chords & Tabs

 

Danger Keep Away Chords & Tabs

Slipknot Chords & Tabs

Version: 1 Type: Bass Tab 0 ratings
1 star 2 stars 3 stars 4 stars 5 stars
comments

Danger Keep Away Bass Tab

   
Band- Slipknot
Song- Danger Keep Away

Tunning: B,E,A,D



Intro

(We do feel alone)
D--------3-------------3---
A-5-5-5----55-3333-555---5-x2
E--------------------------
B--------------------------

D---3----3-------------3---
A-5---5----55-3333-555---5-
E--------------------------
B--------------------------

D--------3-------------3---
A-5-3-5----55-3333-555---5-
E--------------------------
B--------------------------

D--------3-------------3---
A-5-5-5----55-3333-555---5-
E--------------------------
B--------------------------

Chorus (That place in my mind)
D---3----3-------------3---
A-5---5----55-3333-555---5-
E--------------------------
B--------------------------

D--------3-------------3---
A-5-5-5----55-3333-555---5-
E--------------------------
B--------------------------

D---3-2---3-------------3---
A-5-----5---55-3333-555---5-
E---------------------------
B---------------------------

D--------3-------------3---
A-5-5-5----55-3333-555---5-
E--------------------------
B--------------------------

Verse (When drums comes in)
D--------3-------------3---
A-5-5-5----55-3333-555---5-
E--------------------------
B--------------------------

D---3----3-------------3---
A-5---5----55-3333-555---5-
E--------------------------
B--------------------------

D--------3-------------3---
A-5-3-5----55-3333-555---5-
E--------------------------
B--------------------------

D--------3-------------3---
A-5-5-5----55-3333-555---5-
E--------------------------
B--------------------------
[ Tab from: http://www.guitartabs.cc/tabs/s/slipknot/danger_keep_away_btab.html ]
D---3----3-------------3---
A-5---5----55-3333-555---5-
E--------------------------
B--------------------------

D--------3-------------3---
A-5-5-5----55-3333-555---5-
E--------------------------
B--------------------------

D---3-2---3-------------3---
A-5-----5---55-3333-555---5-
E---------------------------
B---------------------------

D--------3-------------3---
A-5-5-5----55-3333-555---5-
E--------------------------
B--------------------------

Chorus II
D--------3-------------3---
A-5-5-5----55-3333-555---5-
E--------------------------
B--------------------------

D---3----3-------------3---
A-5---5----55-3333-555---5-
E--------------------------
B--------------------------

D--------3-------------3---
A-5-3-5----55-3333-555---5-
E--------------------------
B--------------------------

D--------3-------------3---
A-5-5-5----55-3333-555---5-
E--------------------------
B--------------------------

Last verse ( I wont let you walk away)
D---3----3-------------3---
A-5---5----55-3333-555---5-
E--------------------------
B--------------------------

D--------3-------------3---
A-5-5-5----55-3333-555---5-
E--------------------------
B--------------------------

D---3-2---3-------------3---
A-5-----5---55-3333-555---5-
E---------------------------
B---------------------------

D---3----3-------------3---
A-5---5----55-3333-555---5-
E--------------------------
B--------------------------

Outro
D--------3-------------3---
A-5-5-5----55-3333-555---5-x2
E--------------------------
B--------------------------

D---3-2-
A-5-----
E-------
B-------
Comments