Slipknot - Confessions Chords & Tabs

 

Confessions Chords & Tabs

Slipknot Chords & Tabs

Version: 3 Type: Bass Tab 0 ratings
1 star 2 stars 3 stars 4 stars 5 stars
comments

Confessions Bass Tab

   
Title: confessions
Artist: slipknot
Album: M.F.K.R.
Tabed:by ME

Intro:
g|-----10/9---------9-12p10---------10p9---9------10p9-----|
d|----------------10-------10-------------------10----10---|
a|---12---------10----------------12----------10--------10-|
e|-10-------8--8----------------10-------8---8-------------| x6

verse 1:
g|-------------------------------|
d|-----12--------------13--------|
a|---12----12--12----13---13--13-|
e|-10--------10----11-------11---| x26

verse 2:
g|-------------------------------|
d|-------------------------------|
a|---12--------------13----------|
e|-10---12-11p10--11---13-12p11-| x12             }
                                               or  } x6         
g|---------------------------|                     }
d|---------------------------|
a|---12-----12--1213---------|
e|-10---1010--10-----1312p11-|

chorus:

g|-----------------------------|
d|--------------------7---8----|
a|---------5-6-8-8-6h88p6-8p6-|
e|-6-6-666---------------------|
[ Tab from: http://www.guitartabs.cc/tabs/s/slipknot/confessions_btab_ver_3.html ]
g|---------------------------------------|
d|---------------------------------------|
a|-55-0-33-55-5-33-5-3-------------------|
e|---------------------3-11-0-1-0-11-1-0-|

g|-----------------------------|
d|-----------------------------|
a|-----------------------------|
e|-6-6-666-3-5-1-1-0-111-0-1-0-|

g|----------------------------|
d|---------76-4-4-2-444-2-4-2-|
a|-5-5-555--------------------|
e|----------------------------| x6

bridge:
g|----------------------------12------12-|
d|------------10-----10------------------|
a|----12----8---8--8---8--1010---1010----|
e|-10---10-------------------------------| x4

g|-------------------------------------------------|
d|-0-1-1-3-33-----5-3-1-0-1-1-3------------------|
a|------------1-11----------------1-00-1-1-0-1-1-0-|
e|-------------------------------------------------| x4

outro:
g|-----7---7---4-----7---76---4----|
d|---------------------------------|
a|-2/5---5---2---2/5---5----2------|
e|---------------------------------| x4

any questions- devilinmyveins@inbox.lv
Comments