Slipknot - Cakes Taste Nice Chords & Tabs

 

Cakes Taste Nice Chords & Tabs

Slipknot Chords & Tabs

Version: 1 Type: Bass Tab 0 ratings
1 star 2 stars 3 stars 4 stars 5 stars
comments

Cakes Taste Nice Bass Tab

this song is so good and esay 


-----4----4-----4---4----4-----4----4----4----4--
----0--0----0------0---0-----0----0----0----0--0-
-------------------------------------------------
-------------------------------------------------

the next bit is pimps
[ Tab from: http://www.guitartabs.cc/tabs/s/slipknot/cakes_taste_nice_btab.html ]
----67------4---5-4-5--2----5------9-9----7-7----4--
-00000000000000000000000000000000000000000000000000-
---7----3-----4-----------------------5454---543-54-
----------------------------------------------------

the bass solo

---98------10----89-----8-6-9--6-9-98-7-9-5--869--78--
-6-97-6-8-67-9-6-8-769-6798-6-79-69--69-769-678-5-43--
--8-76--9--9-9-9-9-9-9---99-9-9-9-9-99-9-9-9-9-99--9--
-0--0-0-0-0-0-0-0-0-0-0-0-0-0-0-0-0-0-0-0-0-0-0-0-0-0-

so thats pritty much it have fun
Comments