Slipknot - Before I Forget Chords & Tabs

 

Before I Forget Chords & Tabs

Slipknot Chords & Tabs

Version: 5 Type: Tab 0 ratings
1 star 2 stars 3 stars 4 stars 5 stars
comments

Before I Forget Tab

   
Drop B

[Intro] Mick:
----------------------|
----------------------|
----------------------|  X4
--02-20-32-02-032-----|
--02-20-32-02-032-----|
--02-20-32-02-032-----|

Mick & James:

----------------------|
----------------------|
----------------------|  X3
--02-20-32-02-032-----|
--02-20-32-02-032-----|
--02-20-32-02-032-----|

----------------------------|
----------------------------|
----------------------------|
--02-20-0-5-5-50--5-5-50----|
--02-20-0-5-5-50--5-5-50----|
--02-20-0-5-5-50--5-5-50----|

[Pre-verse] M&J:

----------------------|
----------------------|
----------------------|  X3
--02-20-32-02-032-----|
--02-20-32-02-032-----|
--02-20-32-02-032-----|

----------------------|
----------------------|
----------------------|
--02-20-0-5-5-50------|
--02-20-0-5-5-50------|
--02-20-0-5-5-50------|

----------------------|
----------------------|
----------------------|  X3
--02-20-32-02-032-----|
--02-20-32-02-032-----|
--02-20-32-02-032-----|


----------------------------|
----------------------------|
----------------------------|
--02-20-0-5-5-50--5-5-50----|
--02-20-0-5-5-50--5-5-50----|
--02-20-0-5-5-50--5-5-50----|


[Verse] M&J:
---------------------------------------------------|
---------------------------------------------------|
---------------------------------------------------|
--22222-2222-22222-2222-22222-2222-22222-0-5-5-50--|  X4
--22222-2222-22222-2222-22222-2222-22222-0-5-5-50--|
--22222-2222-22222-2222-22222-2222-22222-0-5-5-50--|
  ....  ...  ....  ...  ....  ...  ....

[Pre-chorus] M&J:

Mick:
---------------------------------------------------|
---------------------------------------------------|
--9}----------12}----------11}---------10}---------|
---------------------------------------------------| <<(Perfectly
---------------------------------------------------| << synchronised
---------------------------------------------------|    with each
James:                                                   other)
---------------------------------------------------|
---------------------------------------------------| <<
---------------------------------------------------| <<
----------3*~----------------------3*~-------------|
--2--2-23-----2--2-23------2--2-23-----2--2-23-----|
--2--2-23-----2--2-23-3*~--2--2-23-----2--2-23-3*~-|
  .  . ..     .  . ..      .  . ..     .  . ..

[Chorus] M&J:
-----------------------------------------------------------|
-----------------------------------------------------------|
-----------------------------------------------------------|
--2--4p0-5-00-5-7----2--4p0-5-00-5-087--2--4p0-5-00-5-0----|
--2--4p0-5-00-5-7----2--4p0-5-00-5-087--2--4p0-5-00-5-0----|
--2--4p0-5-00-5-79~--2--4p0-5-00-5-087--2--4p0-5-00-5-07~--|
     .          .       .                  .

-------------------------------------|
-------------------------------------|
-------------------------------------|
--7-7-7-7-7-8-7-10-10-5-5-5-5-5------|   (Chorus X2)
--7-7-7-7-7-8-7-10-10-5-5-5-5-5------|
--7-7-7-7-7-8-7-10-10-5-5-5-5-5-87~--|


[ Tab from: http://www.guitartabs.cc/tabs/s/slipknot/before_i_forget_tab_ver_5.html ]
[Pre-verse] M&J:

----------------------|
----------------------|
----------------------|  X3
--02-20-32-02-032-----|
--02-20-32-02-032-----|
--02-20-32-02-032-----|

----------------------|
----------------------|
----------------------|
--02-20-0-5-5-50------|
--02-20-0-5-5-50------|
--02-20-0-5-5-50------|

[Verse] M&J:
---------------------------------------------------|
---------------------------------------------------|
---------------------------------------------------|
--22222-2222-22222-2222-22222-2222-22222-0-5-5-50--|  X2
--22222-2222-22222-2222-22222-2222-22222-0-5-5-50--|
--22222-2222-22222-2222-22222-2222-22222-0-5-5-50--|
  ....  ...  ....  ...  ....  ...  ....

[Pre-chorus],then [Chorus]

[Bridge]

------------------------------------|
------------------------------------|
------------------------------------|
--555555544p55555544p55555544557755-|
------------------------------------|
------------------------------------|

--------------------------------------|
--------------------------------------| It might sound like they're
--------------------------------------| playing something more comp-
--44555555544p55555544p55555544557755-| licated in the bridge but it
--------------------------------------| turns out that's just the bass.
--------------------------------------|

------------------------------------------------------------------------|
------------------------------------------------------------------------|
------------------------------------------------------------------------|
12-12-11-11-10-10-9-9 10-10-9-9-7-7-5-5-9-9-7-7-5-5-4-4-7-7-5-5-4-4-5-5-|
------------------------------------------------------------------------|
------------------------------------------------------------------------|

----------------------------------------|
----------------------------------------|
----------------------------------------|
--44555555544p55555544p5555554477554455-|
----------------------------------------|
----------------------------------------|
Mick:
-----------------------------------------------------------|
-----------------------------------------------------------|
-----------------------------------------------------------| X4
---10--10-10-10-10-10-10-7--7-7-7-7-9--9-9-9-9-4--4-4-4-4--|
---8---8--8--8--8--8--8--5--5-5-5-5-7--7-7-7-7-2--2-2-2-2--|
-----------------------------------------------------------|
       .  .  .  .  .  .     . . . .    . . . .    . . . .
James:
------------|
------------|
------------|                       (Mick & James play simultaneously)
------------|
--21212321--| X12
------------|
------------|
then,
------------|
------------|
------------|
------------|
--43434343--| X4
------------|
------------|

[Chorus] X3

[Outro] M&J:

----------------------|
----------------------|
----------------------|  X7
--02-20-32-02-032-----|
--02-20-32-02-032-----|
--02-20-32-02-032-----|

----------------------------|
----------------------------|
----------------------------|
--02-20-0-5-5-50--5-5-50----|
--02-20-0-5-5-50--5-5-50----|
--02-20-0-5-5-50--5-5-50----|
Comments