Slint - Good Morning, Captain Chords & Tabs

 

Good Morning, Captain Chords & Tabs

Slint Chords & Tabs

Version: 1 Type: Tab 1 rating
1 star 2 stars 3 stars 4 stars 5 stars
comments

Good Morning, Captain Tab

Guitars are in drop d tuning, low to high: DADGBE

A note with a ^ after it, for example 5^, means a natural harmonic over the fifth fret.

INTRO/RHYTHM Guitar 1
------------------------------------------------------------------------------
-10-10-10-10-10-10-10-10-10---11-11-11-11-11-11-11----------------------------
-11-11-11-11-11-11-11-11-11---10-10-10-10-10-10-10----------------------------
------------------------------------------------------------------------------
------------------------------------------------------------------------------
------------------------------------------------------------------------------

INTRO/RHYTHM Guitar 2 (0.10)
------------------------------------------------------------------------------
------------------------------------------------------------------------------
-11-11-11-11-11-11-11-11-11---------------------------------------------------
------------------------------8-8-8-8-8-8-8-----------------------------------
------------------------------------------------------------------------------
------------------------------------------------------------------------------



DRONE PART Guitar 1 (play 2x) (01.41)
----------------------------------|-------------------------------------------
----------------------------------|-------------------------------------------
----------------------------------|-------------------------------------------
----0---0---0---0---0---0---0---0-|---0---0---0---0---0---0---0---0-----------
--5---5---5---5---5---5---5---5---|-5---5---5---5---5---5---5---5-------------
----------------------------------|-------------------------------------------

DRONE PART Guitar 2 (01.41)
----------------------------------|-------------------------------------------
----------------------------------|-------------------------------------------
----------------------------------|-------------------------------------------
----------------------------------|-------------------------------------------
----------------------------------|-------------------------------------------
----------------------------------|-4---------------6-------------------------


----------------------------------|-------------------------------------------
----------------------------------|-------------------------------------------
----------------------------------|-------------------------------------------
-0--------------------------------|-------------------------------------------
-0--------------------------------|-5---------------5-------------------------
-0--------------------------------|-4---------------6-------------------------



HARMONY PART 1; Guitar 1 (2.02)
------------------------|-----------------------------------------------------
------------------------|-----------------------------------------------------
------------------------|-----------------------------------------------------
--3-3-------------------|--3-3------------------------------------------------
-------5-4--5-4-5-------|-------5-5--4-4-5------------------------------------
------------------------|-----------------------------------------------------
[ Tab from: http://www.guitartabs.cc/tabs/s/slint/good_morning_captain_tab.html ]
HARMONY PART 1; Guitar 1 (2.02)
------------------------|-----------------------------------------------------
------------------------|-----------------------------------------------------
------------------------|-----------------------------------------------------
--3-3-------------------|--3-3------------------------------------------------
-------4-3--4-3-4-------|-------4-4--3-3-4------------------------------------
------------------------|-----------------------------------------------------



HARMONY PART 2; Guitar 1 (3.12)
------------------------|-----------------------------------------------------
------------------------|-----------------------------------------------------
------------------------|-----------------------------------------------------
--7-7--8-7-6---6--------|--7-7--8-8-7---6-------------------------------------
-------------8----------|-------------8---------------------------------------
------------------------|-----------------------------------------------------

HARMONY PART 2; Guitar 2 (3.12)
------------------------|-----------------------------------------------------
------------------------|-----------------------------------------------------
------------------------|-----------------------------------------------------
--3-3-------------------|--3-3------------------------------------------------
-------6-5-4-5-6--------|-------6-6-5-5-6-------------------------------------
------------------------|-----------------------------------------------------



QUIET PART Guitar 1 (4.13)
------------------------------------------------------------------------------
--7-7-7-7-7-7-7-7-7-----------------------------------------------------------
--7-7-7-7-7-7-7-7-7---10-10-10-10-10-10-10------------------------------------
-----------------------8--8--8--8--8--8--8------------------------------------
------------------------------------------------------------------------------
------------------------------------------------------------------------------

QUIET PART Guitar 2 (4.13)
--------|---------------------------------------------------------------------
--------|---------------------------------------------------------------------
--19----|-19^-----------------------------------------------------------------
--------|---------------------------------------------------------------------
--------|---------------------------------------------------------------------
--------|---------------------------------------------------------------------
* Lift hand and turn into natural harmonic 



END/HEAVY PART Guitar 1 (6.40)
------------------------------------------------------------------------------
------------------------------------------------------------------------------
------------------------------------------------------------------------------
--4--------4--------4--0------------------------------------------------------
--4--0-0---4--0-0---4--0------------------------------------------------------
--4--0-0---4--0-0---4--0------------------------------------------------------

END/HEAVY PART Guitar 2 (6.40)
------------------------------------------------------------------------------
------------------------------------------------------------------------------
------------------------------------------------------------------------------
---------------------------------------5^-5^-5^-------------------------------
---------------------------5^-5^-5^-5^----------------------------------------
--4^-4^-4^-4^-4^-4^----5^----------------------------------------------------- 
Comments