Slightly Stoopid - World Goes Round Chords & Tabs

 

World Goes Round Chords & Tabs

Slightly Stoopid Chords & Tabs

Version: 1 Type: Bass Tab 0 ratings
1 star 2 stars 3 stars 4 stars 5 stars
comments

World Goes Round Bass Tab

Artist: Slightly Stoopid
Song: World Goes Round (Track 10)
Album: Everything You Need
Tabbed by: Ryan VanPatten (futrebartender5@netscape.net)

Bass comes in at 00:15
G|-----------------------------------|
D|-----------------------------------|
A|-777777-----5555---7777777---------|
E|--------0-3----------------0-3-----|
Repeat part above ultil 00:40 then bass stops

00:48
G|------------------------|
D|------------------------|
A|-7777--5555--7777-------|
E|------------------------|

Repeat until next part
G|-----------------------------------|
D|-----------------------------------|
A|-777777-----5555---7777777---------|
E|--------0-3----------------0-3-----|

01:21  Repeat 2 times
G|------------------------|
D|------------------------|
A|-7777--5555--7777-------|
E|------------------------|
[ Tab from: http://www.guitartabs.cc/tabs/s/slightly_stoopid/world_goes_round_btab.html ]
01:34 Repeat until next part
G|-----------------------------------|
D|-----------------------------------|
A|-777777-----5555---7777777---------|
E|--------0-3----------------0-3-----|

Around 02:00 bass stops

02:28 Repeat 2 times
G|------------------------|
D|------------------------|
A|-7777--5555--7777-------|
E|------------------------|

02:41 Repeat until next part
G|-----------------------------------|
D|-----------------------------------|
A|-777777-----5555---7777777---------|
E|--------0-3----------------0-3-----|

Bass stops at 03:08

03:14
G|------------------------|
D|------------------------|
A|-7777--5555--7777-------|
E|------------------------|

03:20 Repeat until next part
G|-----------------------------------|
D|-----------------------------------|
A|-777777-----5555---7777777---------|
E|--------0-3----------------0-3-----|

Bass stops at 03:46

Well...theres another Slightly Stoopid tab...I've figured out pretty much the entire 
just gotta get them tabbed on here for all ya...but if ya have any comments or suggestions 
sure to email me~!   -Ryan:~)
Comments